Oops, an error
Loading. Please wait.

Youthanasia - Punkz Not Dead Bass Tab

86 views 1 this week
2 commentsread comments
1 2 3 4 5
2 more votes to show rating
add to favorites
launch autoscroll
font size
0
reset
guitar tuner
Autoscroll
slow
fast
+/-
esc
set tempo
stop
Help us to improve Ultimate-Guitar.com Take our survey!
×
Author
Difficulty
novice
Punkz not dead bass tab by youthanasia

intro
G|------------------------------------------------------------------------------------------|
D|------------------------------------------------------------------------------------------|
A|------------------------------------------------------------------------------------------|
E|------77---99---55-----1212-----77----99---55----1212-------------------------------------| (x2)

After verse
G|------------------------------------------------------------------------------------------|
D|------------------------------------------------------------------------------------------|
A|------------------------------------------------------------------------------------------|
E|------77---99---55-----1212-----77----99---55----1212-------------------------------------| (x2)

After chorus
G|------------------------------------------------------------------------------------------|
D|------------------------------------------------------------------------------------------|
A|------------------------------------------------------------------------------------------|
E|------77---99---55-----1212-----77----99---55----1212-------------------------------------| (x2)

During Solo
G|------------------------------------------------------------------------------------------|
D|------------------------------------------------------------------------------------------|
A|------------------------------------------------------------------------------------------|
E|------77---99---55-----1212-----77----99---55----1212-------------------------------------| (x2)

after solo/chorus
G|------------------------------------------------------------------------------------------|
D|------------------------------------------------------------------------------------------|
A|------------------------------------------------------------------------------------------|
E|------77---99---55-----1212-----77----99---55----1212-------------------------------------| (x2)

After verse
G|------------------------------------------------------------------------------------------|
D|------------------------------------------------------------------------------------------|
A|------------------------------------------------------------------------------------------|
E|------77---99---55-----1212-----77----99---55----1212-------------------------------------| (x2)

During chorus
G|------------------------------------------------------------------------------------------|
D|------------------------------------------------------------------------------------------|
A|------------------------------------------------------------------------------------------|
E|-----77777777---55555555----121212121212121212---9/---------------------------------------| 
Suggest correction
Give kudos to tab author, rate the tab!
1 2 3 4 5
comments
print report bad tab
2 comments total.
0 reply
Jasmith 470 Jul 31, 2007 03:10 PM

what a tab

0 reply
BASSMASTA1988 10 Aug 12, 2008 04:16 PM

wow. were u strictly keeping the beat or just bored as hell?

guest
You may want to rate the tab now too:
select rating
Wanna post a correction for this tab? Suggest correction