Oops, an error
Loading. Please wait.

Yumi Suzuki - Zutto Kimi Ni Soba De Bass Tab

719 views 1 this week
no commentswrite comment
1 2 3 4 5
please rate
add to favorites
launch autoscroll
font size
0
reset
guitar tuner
Tab Pro tools
  • play this tab
  • loop segment
  • change instrument
  • show fretboard
  • metronome
×
Best way to learn
"Yumi Suzuki - Zutto Kimi Ni Soba De"
Autoscroll
slow
fast
+/-
esc
set tempo
stop
Contributor
Difficulty
novice
Intro:

1.
G|----------------|----------------|----------------|----------------|
D|----------------|----------------|----------------|----------------|
A|----------------|----------------|----------------|----------------|
E|----------------|----------------|----------------|----------------|

2.
G|----------------|----------------|----------------|----------------|
D|----------------|----------------|----------------|----------------|
A|----------------|-----3----------|----------------|----------------|
E|-5-5--7\x-------|-1-1------------|-3-3-3----------|-5-5--5\x-------|

3.
G|----------------|----------------|----------------|----------------|
D|----------------|----------------|----------------|----------------|
A|----------------|-----3----------|-----3----------|----------------|
E|-5-5--7\x-------|-1-1---1--------|-3-3---3--------|-3-3-3-3--------|

Repeat 2 and 3

Verse 1

1.
G|----------------|----------------|----------------|----------------|
D|----------------|----------------|----------------|----------------|
A|-3-3-3-3--------|----------------|----------------|----------------|
E|----------------|-1-1-1-1--------|-0-0-0-0--------|-5-----3--------|

2.
G|----------------|----------------|----------------|----------------|
D|----------------|----------------|----------------|----------------|
A|----------------|-3-3-3-3--------|----------------|----------------|
E|-1-1-1-1--------|----------------|-1-1-1-1--------|-3-0-5-0--------|

3.
G|----------------|----------------|----------------|----------------|
D|----------------|----------------|----------------|----------------|
A|----------------|----------------|----------------|----------------|
E|-1-1-1-1--------|-0-0-0-0--------|-0-0-0-0--------|-5-----3--------|

4.
G|----------------|----------------|----------------|----------------|
D|----------------|----------------|----------------|----------------|
A|----------------|-3-3-3-3--------|----------------|---3-2h3p2------|
E|-1-1-1-1--------|----------------|-1-1-1-1--------|-3--------------|

Refrain 1
1.
G|----------------|---0------------|----------------|----------------|
D|----------------|-------2--------|----------------|----------------|
A|----------------|-2---2---2------|----------------|----------------|
E|-5-5--\x--------|----------------|-1-1------------|-x-3---4--------|

2.
G|----------------|---0------------|----------------|----------------|
D|----------------|-------2--------|----------------|----------------|
A|----------------|-2---2---2------|----------------|----------------|
E|-5-5--\x--------|----------------|-1-1------------|-3-5-7-3--------|

Chorus 1

1.
G|----------------|----------------|----------------|----------------|
D|----------------|----------------|----------------|----------------|
A|----------------|-----3----------|----------------|----------------|
E|-5-5--7\x-------|-1-1------------|-3-3-3----------|-5-5--5\x-------|

2.
G|----------------|----------------|----------------|----------------|
D|----------------|----------------|----------------|----------------|
A|----------------|-----3----------|----------------|----------------|
E|-5-5--7\x-------|-1-1------------|-3-3-3----------|-5-5--5\x-------|

3.
G|----------------|----------------|----------------|----------------|
D|----------------|----------------|----------------|----------------|
A|----------------|-----3----------|----------------|----------------|
E|-5-5--7\x-------|-1-1------------|-3-3-3----------|-5-5--5\x-------|

4.
G|----------------|----------------|----------------|----------------|
D|----------------|-----7----------|----------------|----------------|
A|----------------|-5-5--5---------|-----5----------|-3-3-3-3--------|
E|-1-1-1-1--------|----------------|-3-3---3--------|----------------|

Fill 1
1.
G|----------------|----------------|----------------|----------------|
D|----------------|----------------|-----4h5-4h5p4--|----------------|
A|-5-5--------3p5-|----------------|-5h7------------|----------------|
E|----------------|-3-3------------|----------------|-3-3------------|

2.
G|----------------|----------------|----------------|----------------|
D|----------------|----------------|-----4h5-4h5p4--|----------------|
A|-5-5--------3p5-|----------------|-5h7------------|----------------|
E|----------------|-3-3------------|----------------|-3--------------|

Verse 2 = Verse 1

Refrain 2 = Refrain 1

Chorus 2 = Chorus 1

Fill 2:
1.
G|----------------|----------------|----------------|----------------|
D|----------------|----------------|---3-2----------|----------------|
A|-5-5--------3p5-|----------------|-------3-5p3----|----------------|
E|----------------|-3-3------------|-3--------------|-3-3------------|

2.
G|----------------|----------------|----------------|----------------|
D|----------------|---------4h5-5--|-4p0------------|----------------|
A|-5-5------3h5---|-3h5p3----------|--------------4-|-5-----(7)------|
E|------3h5-------|-------3--------|-3--5----7------|----------------|

Instrumental:
1.
G|----------------|----------------|----------------|----------------|
D|----------------|----------------|----------------|----------------|
A|----------------|-3-3\x----------|-5--5555h7-5p3--|----------------|
E|-5-5\x----------|----------------|----------------|-5-5------------|

2.
G|----------------|----------------|----------------|----------------|
D|----------------|----------------|----------------|----------------|
A|----------------|-3-3\x----------|----------------|----------------|
E|-5-5\x----------|----------------|-1-1-1----------|-3-3-3----------|

3.
G|----------------|----------------|----------------|----------------|
D|----------------|----------------|----------------|----------------|
A|----------------|-3-3\x----------|-5--5555h7-5p3--|----------------|
E|-5-5\x----------|----------------|----------------|-5-5------------|

4.
G|----------------|----------------|----------------|----------------|
D|----------------|----------------|----------------|----------------|
A|----------------|-3-3\x----------|----------------|----------------|
E|-5-5\x----------|----------------|-1-1-1----------|-3-3-3----------|

5.
G|----------------|----------------|
D|----------------|----------------|
A|----------------|----------------|
E|-3-3-3-3--------|-3-3-3-3--------|

Chorus 3 = Chorus 1

Outro:
1.
G|----------------|----------------|----------------|----------------|
D|----------------|----------------|----------------|----------------|
A|----------------|-----3----------|----------------|----------------|
E|-5-5--7\x-------|-1-1------------|-3-3-3----------|-5-5--5\x-------|

2.
G|----------------|----------------|----------------|----------------|
D|----------------|----------------|----------------|----------------|
A|----------------|-----3----------|-----3----------|----------------|
E|-5-5--7\x-------|-1-1---1--------|-3-3---3--------|-3-3-3-3--------|

3.
G|----------------|----------------|----------------|----------------|
D|----------------|----------------|----------------|----------------|
A|----------------|-----3----------|----------------|----------------|
E|-5-5--7\x-------|-1-1------------|-3-3-3----------|-5-5--5\x-------|

4.
G|----------------|----------------|----------------|----------------|
D|----------------|----------------|----------------|-3-2------------|
A|----------------|-----3----------|-----3----------|-----3----------|
E|-5-5--7\x-------|-1-1---1--------|-3-3---3--------|----------------|

5.
G|----------------|
D|----------------|
A|----------------|
E|-1--------------|
comments
We did not receive enough feedback on this tab! Please rate:
print report bad tab
1 2 3 4 5
I want to post or [tab]
guest
You may want to rate the tab now too:
select rating
Please do not post tabs as comments. Select "correction" instead!