Oops, an error
Loading. Please wait.

Zach Hudson - Feed The Beast tab

19 views 1 this week
no commentswrite comment
1 2 3 4 5
3 more votes to show rating
add to favorites
×
Save as Personal and add changes to this tab that will be seen only by you. Learn more ›
×
You can save this tab as Personal to edit and correct it or add notes. All changes will be seen only by you. Learn more »
launch autoscroll
font size
0
reset
how to read this tab
guitar tuner
edit
Autoscroll
slow
fast
+/-
esc
set tempo
stop
    [Verse]
    e|--------------|----------------|------------------------|--------------|
    B|--------------|----------------|------------------------|--------------|
    G|7-7-7-7-7-7-3-|-3-3-3-3-3-3-10-|-10-10-10-10-10-10-10-5-|-5-5-5-5-5-6--|
GT1 D|7-7-7-7-7-7-3-|-3-3-3-3-3-3-10-|-10-10-10-10-10-10-10-3-|-5-5-5-5-5-6--| x3
    A|5-5-5-5-5-5-1-|-1-1-1-1-1-1-8--|-8---8--8--8--8--8--8-3-|-3-3-3-3-3-4--|
    E|--------------|----------------|------------------------|--------------|

    GT2 enters 4 bars after GT1 starts
    e|--------3--5-|--------6-----5--|---------------5------3-|----------------|
    B|----3--------|--3--------------|----3-------------------|----------------|
    G|-------------|-----------------|------------------------|----------------|
GT2 D|-------------|-----------------|------------------------|----------------|
    A|-------------|-----------------|------------------------|----------------|
    E|-------------|-----------------|------------------------|----------------|

    e|--------3--5-|--------6-----5--|---------------8------3-|-------------3--|
    B|----3--------|--3--------------|----3-------------------|----------------|
    G|-------------|-----------------|------------------------|----------------|
GT2 D|-------------|-----------------|------------------------|----------------|
    A|-------------|-----------------|------------------------|----------------|
    E|-------------|-----------------|------------------------|----------------|

    e|----------------|----------------|
    B|----------------|----------------|
    G|----------------|----------------|
GT1 D|3-3-3-3-3-3-3-3-|2-2-2-7-7-7-5-5-| x3
    A|1-1-1-1-1-1-1-1-|0-0-0-5-5-5-3-3-|
    E|----------------|----------------|

    e|----------------|----------------|
    B|----------------|----------------|
    G|----------------|----------------|
GT1 D|3-3-3-3-3-3-3-3-|5---------------|
    A|1-1-1-1-1-1-1-1-|3---------------|
    E|----------------|----------------|

    e|5---5---5---5---|5--3--1--5--5--5-|----5---5---5---|5--3--1--5--10--8--5-|
    B|----------------|-----------------|----------------|---------------------|
    G|----------------|-----------------|----------------|---------------------|
GT2 D|----------------|-----------------|----------------|---------------------|
    A|----------------|-----------------|----------------|---------------------|
    E|----------------|-----------------|----------------|---------------------|

    e|----5---5---5---|5--3--1--8--8--5-|---5---8---8---3|---------------------|
    B|----------------|-----------------|----------------|---------------------|
    G|----------------|-----------------|----------------|---------------------|
GT2 D|----------------|-----------------|----------------|---------------------|
    A|----------------|-----------------|----------------|---------------------|
    E|----------------|-----------------|----------------|---------------------|

    e|---------------|--------------|---------------------|----------------|
    B|---------------|--------------|---------------------|----------------|
    G|7-7-7-7-7--10--|3-3-3-3-3--5--|10-10-10-10-10--12\--|5-5-5-5-5-5-5-5-|
GT1 D|7-7-7-7-7--10--|3-3-3-3-3--5--|10-10-10-10-10--12\--|5-5-5-5-5-5-5-5-| x2
    A|5-5-5-5-5--8---|1-1-1-1-1--3--|8--8--8--8--8---10\--|3-3-3-3-3-3-3-3-|
    E|---------------|--------------|---------------------|----------------|

    e|10--10-8-10--10-8--|10-13-10--10--8--10--|10--8-15--13--|12--------8-10--|
    B|-------------------|---------------------|--------------|----------------|
    G|-------------------|---------------------|--------------|----------------|
GT2 D|-------------------|---------------------|--------------|----------------|
    A|-------------------|---------------------|--------------|----------------|
    E|-------------------|---------------------|--------------|----------------|

    e|10--8-10--10-8--|10-13-10--10--8--10--|10--17--15--|12---------15--|
    B|----------------|---------------------|------------|---------------|
    G|----------------|---------------------|------------|---------------|
GT2 D|----------------|---------------------|------------|---------------|
    A|----------------|---------------------|------------|---------------|
    E|----------------|---------------------|------------|---------------|

    e|------------|------------|-----------------|------------|
    B|------------|------------|-----------------|------------|
    G|7--7--7--7--|3--3--3--5--|10--10--10--12\--|5--5--5--5--|
GT1 D|7--7--7--7--|3--3--3--5--|10--10--10--12\--|5--5--5--5--|
    A|5--5--5--5--|1--1--1--3--|8---8---8---10\--|3--3--3--3--|
    E|------------|------------|-----------------|------------|

    e|17--17--17--17--|17-15-13-20--20--17--|17-17--17-15-13-|15-------13-15-|
    B|----------------|---------------------|----------------|---------------|
    G|----------------|---------------------|----------------|---------------|
GT2 D|----------------|---------------------|----------------|---------------|
    A|----------------|---------------------|----------------|---------------|
    E|----------------|---------------------|----------------|---------------|

    e|---------------|--------------|---------------------|----------------|
    B|---------------|--------------|---------------------|----------------|
    G|7-7-7-7-7--10--|3-3-3-3-3--5--|10-10-10-10-10--12\--|5---------------|
GT1 D|7-7-7-7-7--10--|3-3-3-3-3--5--|10-10-10-10-10--12\--|5---------------|
    A|5-5-5-5-5--8---|1-1-1-1-1--3--|8--8--8--8--8---10\--|3---------------|
    E|---------------|--------------|---------------------|----------------|

    e|17--10----10-8--|10-13-10--10--8--10--|10--8-15-13---|12----13-15--10|
    B|----------------|---------------------|--------------|---------------|
    G|----------------|---------------------|--------------|---------------|
GT2 D|----------------|---------------------|--------------|---------------|
    A|----------------|---------------------|--------------|---------------|
    E|----------------|---------------------|--------------|---------------|

    [Verse]
GT1 only at this part
    e|--------------|----------------|------------------------|--------------|
    B|--------------|----------------|------------------------|--------------|
    G|--7-7-7-7-7-3-|-3-3-3-3-3-3-10-|-10-10-10-10-10-10-10-5-|-5-5-5-5-5-6--|
GT1 D|--7-7-7-7-7-3-|-3-3-3-3-3-3-10-|-10-10-10-10-10-10-10-3-|-5-5-5-5-5-6--| x3
    A|--5-5-5-5-5-1-|-1-1-1-1-1-1-8--|-8---8--8--8--8--8--8-3-|-3-3-3-3-3-4--|
    E|--------------|----------------|------------------------|--------------|

    e|----------------|----------------|
    B|----------------|----------------|
    G|----------------|----------------|
GT1 D|3-3-3-3-3-3-3-3-|2-2-2-7-7-7-5-5-|
    A|1-1-1-1-1-1-1-1-|0-0-0-5-5-5-3-3-|
    E|----------------|----------------|

    e|----------------|----------------|
    B|----------------|----------------|
    G|----------------|----------------|
GT1 D|3-3-3-3-3-3-3-3-|5---------------|
    A|1-1-1-1-1-1-1-1-|3---------------|
    E|----------------|----------------|

    e|---------------|--------------|---------------------|----------------|
    B|---------------|--------------|---------------------|----------------|
    G|7-7-7-7-7--10--|3-3-3-3-3--5--|10-10-10-10-10--12\--|5-5-5-5-5-5-5-5-|
GT1 D|7-7-7-7-7--10--|3-3-3-3-3--5--|10-10-10-10-10--12\--|5-5-5-5-5-5-5-5-| x2
    A|5-5-5-5-5--8---|1-1-1-1-1--3--|8--8--8--8--8---10\--|3-3-3-3-3-3-3-3-|
    E|---------------|--------------|---------------------|----------------|

    e|10--10-8-10--10-8--|10-13-10--10--8--10--|10--8-15--13--|12--------8-10--|
    B|-------------------|---------------------|--------------|----------------|
    G|-------------------|---------------------|--------------|----------------|
GT2 D|-------------------|---------------------|--------------|----------------|
    A|-------------------|---------------------|--------------|----------------|
    E|-------------------|---------------------|--------------|----------------|

    e|10--8-10--10-8--|10-13-10--10--8--10--|10--17--15--|12-----12--15--|
    B|----------------|---------------------|------------|---------------|
    G|----------------|---------------------|------------|---------------|
GT2 D|----------------|---------------------|------------|---------------|
    A|----------------|---------------------|------------|---------------|
    E|----------------|---------------------|------------|---------------|

    [Ending]
    e|----------------|--------------|
    B|----------------|--------------|
    G|5-5-5-5-5-5-5-5-|7-------------|
GT1 D|5-5-5-5-5-5-5-5-|7-------------|
    A|3-3-3-3-3-3-3-3-|5-------------|
    E|----------------|--------------|

    e|12-------12-15--|10------------|
    B|----------------|--------------|
    G|----------------|--------------|
GT2 D|----------------|--------------|
    A|----------------|--------------|
    E|----------------|--------------|


************************************

| \  Slide down

************************************

            
            
Suggest correction
Creating personal tab
Creating personal tab
You can edit any tab online and save it as your Personal.

You can edit, replace or remove any tab part or add personal notes – all changes will be seen only by you.

Personal tabs can be accessed anytime from any device, even offline.
Learn more »
Give kudos to tab author, rate the tab!
1 2 3 4 5
comments
print report bad tab
guest
You may want to rate the tab now too:
select rating
Wanna post a correction for this tab? Suggest correction