Oops, an error
Loading. Please wait.

Zealous Federation - Question Marks Bass Tab

45 views 1 this week
no commentswrite comment
1 2 3 4 5
please rate
add to favorites
launch autoscroll
font size
0
reset
guitar tuner
Autoscroll
slow
fast
+/-
esc
set tempo
stop
Help us to improve Ultimate-Guitar.com Take our survey!
×
Author
Intro (x8)

G|---------------------------------------------------------------------------|
D|---------------------------------------------------------------------------|
A|---------------------------------------------------------------------------|
E|2-2-2-2-2-2-2-2-3-3-3-3-3-3-3-3--------------------------------------------|

Riff X2
G|---------------------------------------------------------------------------|
D|---------------------------------3-3-3-3-3-3-3-3-3-3-3-3-3-3-3-3-----------|
A|-4-4-4-4-4-4-4-4-4-4-4-4-4-4-4-4-------------------------------------------|
E|---------------------------------------------------------------------------|

Verse
G|---------------------------------------------------------------------------|
D|---------------------------------3-3-3-3-3-3-3-3-3-3-3-3-3-3-3-3-----------|
A|-4-4-4-4-4-4-4-4-4-4-4-4-4-4-4-4-------------------------------------------|
E|---------------------------------------------------------------------------|

Chorus x2
G|---------------------------------------------------------------------------|
D|---------------------------------------------------------------------------|
A|-4-4-4-4-4-4-4-4-----------------------------------------------------------|
E|-----------------3-3-3-3-3-3-3-3-2-2-2-2-2-2-2-2-3-3-3-3-3-3-3-3-----------|

Solo x2
G|---------------------------------------------------------------------------|
D|---------------------------------------------------------------------------|
A|-4-4-4-4-4-4-4-4-----------------------------------------------------------|
E|-----------------3-3-3-3-3-3-3-3-2-2-2-2-2-2-2-2-3-3-3-3-3-3-3-3-----------|
Then verse and then the chorus twice 

Outro x 4
G|---------------------------------------------------------------------------|
D|---------------------------------------------------------------------------|
A|-4-4-4-4-4-4-4-4-----------------------------------------------------------|
E|----------------3-3-3-3-3-3-3-3--------------------------------------------|


===============================================================================
Suggest correction
Give kudos to tab author, rate the tab!
1 2 3 4 5
comments
print report bad tab
guest
You may want to rate the tab now too:
select rating
Wanna post a correction for this tab? Suggest correction