Oops, an error
Loading. Please wait.

Zeest - Sutta Tab

version 2
version 2

Whole song

1,162 views 1 this week
no commentswrite comment
1 2 3 4 5
please rate
add to favorites
launch autoscroll
font size
0
reset
how to read this tab
guitar tuner
Autoscroll
slow
fast
+/-
esc
set tempo
stop
Help us to improve Ultimate-Guitar.com Take our survey!
×
Contributor
Vinit 30
SUTTA – ZEEST…….

CHORD CHART –

G     320033
D     xx0232
Em    022000
C     032010
G*     355433

 BASIC RHYTHM ( STRUMMING PATTERN )

Two parts of rhythm – Both of equal interval.

D    D    U   UD  UD
-----------    --------------
1st part        2nd part

    G         D       Em        C
e|------3---|-----2---|-----0---|-------2---|
B|--------3-|-------3-|-------0-|---------1-|
G|----0-----|---2-----|---0-----|-----2-----|
D|---0------|-0-------|-2-------|---2-------|
A|-2--------|---------|---------|-3---------|
E|----------|---------|---------|-----------|

OK, The song is dedicated to all the smokers and dopers
    G         D       Em        C
e|------3---|-----2---|-----0---|---------|-----|
B|--------3-|-------3-|-------0-|---1-----|-3-5-|
G|----0-----|---2-----|---0-----|-0-------|-----|
D|---0------|-0-------|-2-------|---------|-----|
A|-2--------|---------|---------|---------|-----|
E|----------|---------|---------|---------|-----|

by zeesta band. So lets hit it, come on.
    G         D       Em        C
e|------3---|-----2---|-----0---|-------2---|
B|--------3-|-------3-|-------0-|---------1-|
G|----0-----|---2-----|---0-----|-----2-----|
D|---0------|-0-------|-2-------|---2-------|
A|-2--------|---------|---------|-3---------|
E|----------|---------|---------|-----------|

Zeest         Zeest
    G         D       Em        C
e|------3---|-----2---|-----0---|---------|-----|
B|--------3-|-------3-|-------0-|---1-----|-3-5-|
G|----0-----|---2-----|---0-----|-0-------|-----|
D|---0------|-0-------|-2-------|---------|-----|
A|-2--------|---------|---------|---------|-----|
E|----------|---------|---------|---------|-----|


Strumming Starts . . . With almost the same rhythm, a little different, u can easily 
after u hear the song…….

    G*    G* muted    D       C
e|-3--3---X-XX-XX---2-2-22---0-0-00--|
B|-3--3---X-XX-XX---3-3-33---1-1-11--|
G|-4--4---X-XX-XX---2-2-22---0-0-00--|
D|-5--5---X-XX-XX---0-0-00---2-2-22--|
A|-5--5---X-XX-XX---X-X-XX---3-3-33--|
E|-3--3---X-XX-XX---X-X-XX---0-0-00--|


    G*    G* muted    D       C
e|-3--3---X-XX-XX---2-2-22---0-0-00--|
B|-3--3---X-XX-XX---3-3-33---1-1-11--|
G|-4--4---X-XX-XX---2-2-22---0-0-00--|
D|-5--5---X-XX-XX---0-0-00---2-2-22--|
A|-5--5---X-XX-XX---X-X-XX---3-3-33--|
E|-3--3---X-XX-XX---X-X-XX---0-0-00--|


    G        D         Em       C
e|-3--3----2-22-22---0—-0----0-0-00--|
B|-3--3----3-33-33---0—-0----1-1-11--|
G|-0--0----2-22-22---0—-0----0-0-00--|
D|-0--0----0-00-00---2—-2----2-2-22--|
A|-2--2----X-XX-XX---2—-2----3-3-33--|
E|-3--3----X-XX-XX---0—-0----0-0-00--|

    G        D         Em       C
e|-3--3----2-22-22---0—-0----0-0-00--|
B|-3--3----3-33-33---0—-0----1-1-11--|
G|-0--0----2-22-22---0—-0----0-0-00--|
D|-0--0----0-00-00---2—-2----2-2-22--|
A|-2--2----X-XX-XX---2—-2----3-3-33--|
E|-3--3----X-XX-XX---0—-0----0-0-00--|

    G*    G* muted    D       C
e|-3--3---X-XX-XX---2-2-22---0-0-00--|
B|-3--3---X-XX-XX---3-3-33---1-1-11--|
G|-4--4---X-XX-XX---2-2-22---0-0-00--|
D|-5--5---X-XX-XX---0-0-00---2-2-22--|
A|-5--5---X-XX-XX---X-X-XX---3-3-33--|
E|-3--3---X-XX-XX---X-X-XX---0-0-00--|


    G*    G* muted    D       C
e|-3--3---X-XX-XX---2-2-22---0-0-00--|
B|-3--3---X-XX-XX---3-3-33---1-1-11--|
G|-4--4---X-XX-XX---2-2-22---0-0-00--|
D|-5--5---X-XX-XX---0-0-00---2-2-22--|
A|-5--5---X-XX-XX---X-X-XX---3-3-33--|
E|-3--3---X-XX-XX---X-X-XX---0-0-00--|


Now the BASIC strumming pattern starts that I have mentioned above….


[G]Doston [D]mein baitha mein [Em]sutta pee [C]raha

[G]Abba ne [D]mujhe sutta [Em]peete dekh [C]liya

[G]Ghar jab mein [D]pahuncha mujhe [Em]danda ho [C]gaya

[G]Bh*** ch** [D]sutta , [Em]sutta na [C]mila - - - - x 5 ( Five Times )

    G*    G* muted    D       C
e|-3--3---X-XX-XX---2-2-22---0-0-00--|
B|-3--3---X-XX-XX---3-3-33---1-1-11--|
G|-4--4---X-XX-XX---2-2-22---0-0-00--|
D|-5--5---X-XX-XX---0-0-00---2-2-22--|
A|-5--5---X-XX-XX---X-X-XX---3-3-33--|
E|-3--3---X-XX-XX---X-X-XX---0-0-00--|

    G*    G* muted    D       C
e|-3--3---X-XX-XX---2-2-22---0-0-00--|
B|-3--3---X-XX-XX---3-3-33---1-1-11--|
G|-4--4---X-XX-XX---2-2-22---0-0-00--|
D|-5--5---X-XX-XX---0-0-00---2-2-22--|
A|-5--5---X-XX-XX---X-X-XX---3-3-33--|
E|-3--3---X-XX-XX---X-X-XX---0-0-00--|

[G]College mein [D]gaya mujhe [Em]pyar ho [C]gaya

[G]Usne ne bhi [D]mujhse mera [Em]sutta cheen [C]liya

[G]Sarkon pe [D]ghooma mein [Em]tanha reh [C]gaya

[G]Bh*** ch** [D]sutta , [Em]sutta na [C]mila - - - - x 5 ( Five Times )

    G*       D       C        C
e|-3--3----2--2----0----00-00-00-|
B|-3--3----3--3----1----11-11-11-|
G|-4--4----2--2----0----00-00-00-|
D|-5--5----0--0----2----22-22-22-|
A|-5--5----X--X----3----33-33-33-|
E|-3--3----X--X----0----00-00-00-|

    G*       D       C        C
e|-3--3----2--2----0----00-00-00-|
B|-3--3----3--3----1----11-11-11-|
G|-4--4----2--2----0----00-00-00-|
D|-5--5----0--0----2----22-22-22-|
A|-5--5----X--X----3----33-33-33-|
E|-3--3----X--X----0----00-00-00-|

[G]Shaadi [D]hui mein [Em]husband ban [C]gaya

[G]Raat bhar [D]tho** mein [Em]thak ke gir [C]gaya

[G]Khushiyon ki [D]khatir mera [Em]sutta cheen [C]gayaaaaaaaaaa

Bh*** Ch** sutta


While the solo – the same chords with same rhythm keep playing on 1st guitar.

SOLO by 2nd guitar

e-5/7--5-3--5-3-------3--3-5-3--------|
B---------------3-3-5-----------------|
G-------------------------------------|
D-------------------------------------|
A-------------------------------------|
E-------------------------------------|

e-5/7--5-3--5-3-------3--3-5-3--------|
B---------------3-3-5-----------------|
G-------------------------------------|
D-------------------------------------|
A-------------------------------------|
E-------------------------------------|

e-8-8---7-5-7-3-------3--3-5-3--------|
B----------------3-3-5----------------|
G-------------------------------------|
D-------------------------------------|
A-------------------------------------|
E-------------------------------------|

e-8-8---7-5-7-3-------3--3-5-3--------|
B----------------3-3-5----------------|
G-------------------------------------|
D-------------------------------------|
A-------------------------------------|
E-------------------------------------|

e-5/7--5-3--5-3-------3--3-5-3--------|
B---------------3-3-5-----------------|
G-------------------------------------|
D-------------------------------------|
A-------------------------------------|
E-------------------------------------|

e-5/7--5-3--5-3-------3--3-5-3--------|
B---------------3-3-5-----------------|
G-------------------------------------|
D-------------------------------------|
A-------------------------------------|
E-------------------------------------|

e--------------1-1-1--3-3-3--4-4-4--6-6-6--8-8-8--|
B-3-3-3--4-4-4------------------------------------|
G-------------------------------------------------|
D-------------------------------------------------|
A-------------------------------------------------|
E-------------------------------------------------|

e--9-9-9--11-11-11--13-13-13--15-15-15--16-16-16-16-16-16-|
B---------------------------------------------------------|
G---------------------------------------------------------|
D---------------------------------------------------------|
A---------------------------------------------------------|
E---------------------------------------------------------|


[G]Bh*** ch** [D]sutta , [Em]sutta na [C]mila - - - - x 4 ( Four Times )


Then strumming is like

G (basic rhythm) one time….

Dsus2 D   Dsus2 D   Dsus2 D         D    (CHORDS)
 ---------      ----------      --------    ------------------    (TIMING)
     D            D           D            U D  U D     (STRUMMING)
(Found this part a little messy , so detailed strumming …)

[G]Bh*** ch**  [D]Ma* Ch** [Em]Bh*** ch**  Ma* Ch**  [D]Bh*** ch**  Ma* Ch** } x 4 ( 
Times)


[G]Na nana [D]nana [Em]nana na nana [C]nanaaaaa

[G]Na nana [D]nana [Em]nana na nana [C]nanaaaaa

[G]Na nana [D]nana [Em]nana na nana [C]nanaaaaa

Hahahahahahahahahaha

Zeest Zeest . . . . .

    Ha Haaa
comments
We did not receive enough feedback on this tab! Please rate:
print report bad tab
1 2 3 4 5
I want to post or [tab]
guest
You may want to rate the tab now too:
select rating
Please do not post tabs as comments. Select "correction" instead!