Oops, an error
Loading. Please wait.

Zeev Nitzan Ginsburg - Cdsn Tab

54 views 1 this week
no commentswrite comment
1 2 3 4 5
3 more votes to show rating
add to favorites
launch autoscroll
font size
0
reset
how to read this tab
guitar tuner
Autoscroll
slow
fast
+/-
esc
set tempo
stop
Help us to improve Ultimate-Guitar.com Take our survey!
×
Author
Difficulty
novice
verse|-{c-Fmaj}x6 dm-d-am-Fmaj-c-fmaj-c-g-c-fmaj-c-F-|

chorus|-em-c-g-fmaj-c-em-e-e7----am-em-c-g-dm-fmaj-c-e-e7-|

verse repeats-|

solo|-
e|--------------------------------|
b|--------------------------------|
g|--------------------------------|
d|-------2-3-3-2------------------|
a|--0-2-3--------3-2-5-3b---------|
E|-3------------------------------|


e|--------------------------|
b|--------------------------|
g|--------------------------|
d|--------------------------|
a|--------------------------|
E|-3-5b---3-5-7-5-8/7b------|


e|----------------------------------------------|
b|----------------------------------------------|
g|----------------------------------------------|
d|----5-7---5-7---5-7---5-7---7-5---7-5---------|
a|-7-5---7-5---7-5---7-5---7-5---5-7---7-5-3-2b-|
E|----------------------------------------------|


e|-12-9-5-7-9-7-3-5-7-5-1-3~/15\1-|
b|--------------------------------|
g|--------------------------------|
d|--------------------------------|
a|--------------------------------|
E|--------------------------------|



e|-12-9-5-7-9-7-3-5-7-5-1-3/12~p0-|
b|--------------------------------|
g|--------------------------------|
d|--------------------------------|
a|--------------------------------|
E|--------------------------------|

-|solo ends

repeat chorus-|

fade out|-c-g-c-fmaj-g-c-cmaj-cmaj7---fingers come off, pinky last-|
Suggest correction
Give kudos to tab author, rate the tab!
1 2 3 4 5
comments
print report bad tab
guest
You may want to rate the tab now too:
select rating
Wanna post a correction for this tab? Suggest correction