Oops, an error
Loading. Please wait.

Zeke Whiting - Song Ii tab

38 views 3 this week
no commentswrite comment
1 2 3 4 5
3 more votes to show rating
add to favorites
×
Save as Personal and add changes to this tab that will be seen only by you. Learn more ›
×
You can save this tab as Personal to edit and correct it or add notes. All changes will be seen only by you. Learn more »
launch autoscroll
font size
0
reset
how to read this tab
guitar tuner
edit
Autoscroll
slow
fast
+/-
esc
set tempo
stop
Author
-------------------------------------------------------------------------------
                             Song II - Zeke Whiting
-------------------------------------------------------------------------------
Tabbed by: Zeke Whiting
Email: ezwhiting@gmail.com

Tuning: Both guitars eBGDAE (Standard)

Guitar I: Clean with reverb
Guitar II: Fuzz with reverb

  Guitar I
e|----------------------------------------------------------------|
B|----------------------------------------------------------------|
G|----------------------------------------------------------------|
D|----------------------------------------------------------------|
A|--------4---------------4---------------4---------------4-------|
E|2-------2-------2-------2-------2-------2-------2-------2-------|

e|----------------------------------------------------------------|
B|----------------------------------------------------------------|
G|----------------------------------------------------------------|
D|----------------------------------------------------------------|
A|--------4---------------4---------------4---------------4-------|
E|2-------2-------2-------2-------2-------2-------2-------2-------|

e|----------------------------------------------------------------|
B|----------------------------------------------------------------|
G|----------------------------------------------------------------|
D|--------4---------------4---------------4---------------4-------|
A|2-------2-------2-------2-------2-------2-------2-------2-------|
E|----------------------------------------------------------------|

e|----------------------------------------------------------------|
B|----------------------------------------------------------------|
G|----------------------------------------------------------------|
D|--------4---------------4---------------4---------------4-------|
A|2-------2-------2-------2-------2-------2-------2-------2-------|
E|----------------------------------------------------------------|

e|----------------------------------------------------------------|
B|----------------------------------------------------------------|
G|----------------------------------------------------------------|
D|--------7---------------7---------------7---------------7-------|
A|5-------5-------5-------5-------5-------5-------5-------5-------|
E|----------------------------------------------------------------|

e|----------------------------------------------------------------|
B|----------------------------------------------------------------|
G|----------------------------------------------------------------|
D|--------7---------------7---------------7---------------7-------|
A|5-------5-------5-------5-------5-------5-------5-------5-------|
E|----------------------------------------------------------------|

e|----------------------------------------------------------------|
B|----------------------------------------------------------------|
G|----------------------------------------------------------------|
D|--------4---------------4---------------4---------------4-------|
A|2-------2-------2-------2-------2-------2-------2-------2-------|
E|----------------------------------------------------------------|

e|----------------------------------------------------------------|
B|----------------------------------------------------------------|
G|----------------------------------------------------------------|
D|--------4---------------4---------------4---------------4-------|
A|2-------2-------2-------2-------2-------2-------2-------2-------|
E|----------------------------------------------------------------|

e|----------------------------------------------------------------|
B|----------------------------------------------------------------|
G|----------------------------------------------------------------|
D|----------------------------------------------------------------|
A|--------4---------------4---------------4---------------4-------|
E|2-------2-------2-------2-------2-------2-------2-------2-------|

e|----------------------------------------------------------------|
B|----------------------------------------------------------------|
G|----------------------------------------------------------------|
D|----------------------------------------------------------------|
A|--------4---------------4---------------4---------------4-------|
E|2-------2-------2-------2-------2-------2-------2-------2-------|

e|----------------------------------------------------------------|
B|----------------------------------------------------------------|
G|----------------------------------------------------------------|
D|--------4---------------4---------------4---------------4-------|
A|2-------2-------2-------2-------2-------2-------2-------2-------|
E|----------------------------------------------------------------|

e|----------------------------------------------------------------|
B|----------------------------------------------------------------|
G|----------------------------------------------------------------|
D|--------4---------------4---------------4---------------4-------|
A|2-------2-------2-------2-------2-------2-------2-------2-------|
E|----------------------------------------------------------------|

e|----------------------------------------------------------------|
B|----------------------------------------------------------------|
G|----------------------------------------------------------------|
D|--------7---------------7---------------7---------------7-------|
A|5-------5-------5-------5-------5-------5-------5-------5-------|
E|----------------------------------------------------------------|

e|----------------------------------------------------------------|
B|----------------------------------------------------------------|
G|----------------------------------------------------------------|
D|--------7---------------7---------------7---------------7-------|
A|5-------5-------5-------5-------5-------5-------5-------5-------|
E|----------------------------------------------------------------|

e|----------------------------------------------------------------|
B|----------------------------------------------------------------|
G|----------------------------------------------------------------|
D|--------4---------------4---------------4---------------4-------|
A|2-------2-------2-------2-------2-------2-------2-------2-------|
E|----------------------------------------------------------------|

e|----------------------------------------------------------------|
B|----------------------------------------------------------------|
G|----------------------------------------------------------------|
D|--------4---------------4---------------4---------------4-------|
A|2-------2-------2-------2-------2-------2-------2-------2-------|
E|----------------------------------------------------------------|

e|----------------------------------------------------------------|
B|----------------------------------------------------------------|
G|----------------------------------------------------------------|
D|----------------------------------------------------------------|
A|--------4---------------4---------------4---------------4-------|
E|2-------2-------2-------2-------2-------2-------2-------2-------|

e|----------------------------------------------------------------|
B|----------------------------------------------------------------|
G|----------------------------------------------------------------|
D|----------------------------------------------------------------|
A|--------4---------------4---------------4---------------4-------|
E|2-------2-------2-------2-------2-------2-------2-------2-------|

e|----------------------------------------------------------------|
B|----------------------------------------------------------------|
G|----------------------------------------------------------------|
D|--------4---------------4---------------4---------------4-------|
A|2-------2-------2-------2-------2-------2-------2-------2-------|
E|----------------------------------------------------------------|

e|----------------------------------------------------------------|
B|----------------------------------------------------------------|
G|----------------------------------------------------------------|
D|--------4---------------4---------------4---------------4-------|
A|2-------2-------2-------2-------2-------2-------2-------2-------|
E|----------------------------------------------------------------|

e|----------------------------------------------------------------|
B|----------------------------------------------------------------|
G|----------------------------------------------------------------|
D|--------7---------------7---------------7---------------7-------|
A|5-------5-------5-------5-------5-------5-------5-------5-------|
E|----------------------------------------------------------------|

e|----------------------------------------------------------------|
B|----------------------------------------------------------------|
G|----------------------------------------------------------------|
D|--------7---------------7---------------7---------------7-------|
A|5-------5-------5-------5-------5-------5-------5-------5-------|
E|----------------------------------------------------------------|

e|----------------------------------------------------------------|
B|----------------------------------------------------------------|
G|----------------------------------------------------------------|
D|--------4---------------4---------------4---------------4-------|
A|2-------2-------2-------2-------2-------2-------2-------2-------|
E|----------------------------------------------------------------|

e|----------------------------------------------------------------|
B|----------------------------------------------------------------|
G|----------------------------------------------------------------|
D|--------4---------------4---------------4---------------4-------|
A|2-------2-------2-------2-------2-------2-------2-------2-------|
E|----------------------------------------------------------------|

e|----------------------------------------------------------------|
B|----------------------------------------------------------------|
G|----------------------------------------------------------------|
D|----------------------------------------------------------------|
A|--------4---------------4---------------4---------------4-------|
E|2-------2-------2-------2-------2-------2-------2-------2-------|

e|----------------------------------------------------------------|
B|----------------------------------------------------------------|
G|----------------------------------------------------------------|
D|----------------------------------------------------------------|
A|--------4---------------4---------------4---------------4-------|
E|2-------2-------2-------2-------2-------2-------2-------2-------|

e|----------------------------------------------------------------|
B|----------------------------------------------------------------|
G|----------------------------------------------------------------|
D|--------4---------------4---------------4---------------4-------|
A|2-------2-------2-------2-------2-------2-------2-------2-------|
E|----------------------------------------------------------------|

e|----------------------------------------------------------------|
B|----------------------------------------------------------------|
G|----------------------------------------------------------------|
D|--------4---------------4---------------4---------------4-------|
A|2-------2-------2-------2-------2-------2-------2-------2-------|
E|----------------------------------------------------------------|

e|----------------------------------------------------------------|
B|----------------------------------------------------------------|
G|----------------------------------------------------------------|
D|--------7---------------7---------------7---------------7-------|
A|5-------5-------5-------5-------5-------5-------5-------5-------|
E|----------------------------------------------------------------|

e|----------------------------------------------------------------|
B|----------------------------------------------------------------|
G|----------------------------------------------------------------|
D|--------7---------------7---------------7---------------7-------|
A|5-------5-------5-------5-------5-------5-------5-------5-------|
E|----------------------------------------------------------------|

e|----------------------------------------------------------------|
B|----------------------------------------------------------------|
G|----------------------------------------------------------------|
D|--------4---------------4---------------4---------------4-------|
A|2-------2-------2-------2-------2-------2-------2-------2-------|
E|----------------------------------------------------------------|

e|----------------------------------------------------------------|
B|----------------------------------------------------------------|
G|----------------------------------------------------------------|
D|--------4---------------4---------------4---------------4-------|
A|2-------2-------2-------2-------2-------2-------2-------2-------|
E|----------------------------------------------------------------|

  Guitar II (Solo)
e|----------------14------17------17b-------------17b--17---14----|
B|17b-------------------------------------------------------------|
G|----------------------------------------------------------------|
D|----------------------------------------------------------------|
A|----------------------------------------------------------------|
E|----------------------------------------------------------------|

e|----------------------------------------------------------------|
B|17b-------------------------------------------------------------|
G|----------------16b-------------16b-------------16b-------------|
D|----------------------------------------------------------------|
A|----------------------------------------------------------------|
E|----------------------------------------------------------------|

e|----------------------------------------------------------------|
B|----------------------------------------------------------------|
G|----------------------------------------------------------------|
D|16b-------------16b-------------14b-------------14b-------------|
A|----------------------------------------------------------------|
E|----------------------------------------------------------------|

e|----------------------------------------------------------------|
B|----------------------------------------------------------------|
G|----------------------------------------------------------------|
D|----------------------------------------------------------------|
A|16b-------------------------------------------------------------|
E|----------------------------------------------------------------|

e|----------------------------------------------------------------|
B|----------------------------------------------------------------|
G|----------------------------------------------------------------|
D|----------------------------------------------------------------|
A|14b-------------14/16---------------------------16b-------------|
E|----------------------------------------------------------------|

e|----------------------------------------------------------------|
B|----------------------------------------------------------------|
G|--------------------------------14b-----------------------------|
D|----------------14/16-------------------------------------------|
A|14b---------------------------------------------16b-------------|
E|----------------------------------------------------------------|

e|----------------------------------------------------------------|
B|----------------------------------------------------------------|
G|----------------------------------------------------------------|
D|----------------------------------------------------------------|
A|14b-----------------------------12--------------14b-------------|
E|----------------------------------------------------------------|

e|----------------------------------------------------------------|
B|----------------------------------------------------------------|
G|----------------------------------------------------------------|
D|----------------------------------------------------------------|
A|----------------14b---------------------------------------------|
E|--------------------------------14b-----------------------------|

e|----------------------------------------------------------------|
B|----------------------------------------------------------------|
G|----------------------------------------------------------------|
D|----------------------------------------------------------------|
A|----------------------------------------------------------------|
E|14b-------------14b---------------------------------------------|

e|----------------------------------------------------------------|
B|----------------------------------------------------------------|
G|----------------------------------------------------------------|
D|----------------------------------------------------------------|
A|12/14-----------14b---------------------------------------------|
E|----------------------------------------------------------------|

e|--------------------------------14/17-----------17b-------------|
B|14/17-----------17b---------------------------------------------|
G|----------------------------------------------------------------|
D|----------------------------------------------------------------|
A|----------------------------------------------------------------|
E|----------------------------------------------------------------|

e|------------------------14--------------------------------------|
B|--------------------------------17b-----------------------------|
G|----------------------------------------------------------------|
D|----------------------------------------------------------------|
A|----------------------------------------------------------------|
E|----------------------------------------------------------------|

e|----------------------------------------------------------------|
B|14--------------14----------------------------------------------|
G|----------------16b---------------------------------------------|
D|----------------------------------------------------------------|
A|----------------------------------------------------------------|
E|----------------------------------------------------------------|

e|17h19-----------19b------------------------------------17-------|
B|----------------------------------------------------------------|
G|----------------------------------------------------------------|
D|----------------------------------------------------------------|
A|----------------------------------------------------------------|
E|----------------------------------------------------------------|

e|----------------------------------------------------------------|
B|19b-------------------------------------17------17\14-----------|
G|----------------------------------------------------------------|
D|----------------------------------------------------------------|
A|----------------------------------------------------------------|
E|----------------------------------------------------------------|

e|----------------------------------------------------------------|
B|14\-------------------------------------------------------------|
G|----------------------------------------------------------------|
D|----------------------------------------------------------------|
A|----------------------------------------------------------------|
E|----------------------------------------------------------------|

  Guitar I
e|----------------------------------------------------------------|
B|----------------------------------------------------------------|
G|----------------------------------------------------------------|
D|----------------------------------------------------------------|
A|--------4---------------4---------------4---------------4-------|
E|2-------2-------2-------2-------2-------2-------2-------2-------|

e|----------------------------------------------------------------|
B|----------------------------------------------------------------|
G|----------------------------------------------------------------|
D|----------------------------------------------------------------|
A|--------4---------------4---------------4---------------4-------|
E|2-------2-------2-------2-------2-------2-------2-------2-------|

e|----------------------------------------------------------------|
B|----------------------------------------------------------------|
G|----------------------------------------------------------------|
D|--------4---------------4---------------4---------------4-------|
A|2-------2-------2-------2-------2-------2-------2-------2-------|
E|----------------------------------------------------------------|

e|----------------------------------------------------------------|
B|----------------------------------------------------------------|
G|----------------------------------------------------------------|
D|--------4---------------4---------------4---------------4-------|
A|2-------2-------2-------2-------2-------2-------2-------2-------|
E|----------------------------------------------------------------|

e|----------------------------------------------------------------|
B|----------------------------------------------------------------|
G|----------------------------------------------------------------|
D|--------7---------------7---------------7---------------7-------|
A|5-------5-------5-------5-------5-------5-------5-------5-------|
E|----------------------------------------------------------------|

e|----------------------------------------------------------------|
B|----------------------------------------------------------------|
G|----------------------------------------------------------------|
D|--------7---------------7---------------7---------------7-------|
A|5-------5-------5-------5-------5-------5-------5-------5-------|
E|----------------------------------------------------------------|

e|----------------------------------------------------------------|
B|----------------------------------------------------------------|
G|----------------------------------------------------------------|
D|--------4---------------4---------------4---------------4-------|
A|2-------2-------2-------2-------2-------2-------2-------2-------|
E|----------------------------------------------------------------|

e|----------------------------------------------------------------|
B|----------------------------------------------------------------|
G|----------------------------------------------------------------|
D|--------4---------------4---------------4---------------4-------|
A|2-------2-------2-------2-------2-------2-------2-------2-------|
E|----------------------------------------------------------------|

e|----------------------------------------------------------------|
B|----------------------------------------------------------------|
G|----------------------------------------------------------------|
D|----------------------------------------------------------------|
A|--------4---------------4---------------4---------------4-------|
E|2-------2-------2-------2-------2-------2-------2-------2-------|

e|----------------------------------------------------------------|
B|----------------------------------------------------------------|
G|----------------------------------------------------------------|
D|----------------------------------------------------------------|
A|--------4---------------4---------------4---------------4-------|
E|2-------2-------2-------2-------2-------2-------2-------2-------|

e|----------------------------------------------------------------|
B|----------------------------------------------------------------|
G|----------------------------------------------------------------|
D|--------4---------------4---------------4---------------4-------|
A|2-------2-------2-------2-------2-------2-------2-------2-------|
E|----------------------------------------------------------------|

e|----------------------------------------------------------------|
B|----------------------------------------------------------------|
G|----------------------------------------------------------------|
D|--------4---------------4---------------4---------------4-------|
A|2-------2-------2-------2-------2-------2-------2-------2-------|
E|----------------------------------------------------------------|

e|----------------------------------------------------------------|
B|----------------------------------------------------------------|
G|----------------------------------------------------------------|
D|--------7---------------7---------------7---------------7-------|
A|5-------5-------5-------5-------5-------5-------5-------5-------|
E|----------------------------------------------------------------|

e|----------------------------------------------------------------|
B|----------------------------------------------------------------|
G|----------------------------------------------------------------|
D|--------7---------------7---------------7---------------7-------|
A|5-------5-------5-------5-------5-------5-------5-------5-------|
E|----------------------------------------------------------------|

e|----------------------------------------------------------------|
B|----------------------------------------------------------------|
G|----------------------------------------------------------------|
D|--------4---------------4---------------4---------------4-------|
A|2-------2-------2-------2-------2-------2-------2-------2-------|
E|----------------------------------------------------------------|

e|----------------------------------------------------------------|
B|----------------------------------------------------------------|
G|----------------------------------------------------------------|
D|--------4---------------4---------------4---------------4-------|
A|2-------2-------2-------2-------2-------2-------2-------2-------|
E|----------------------------------------------------------------|

e|----------------------------------------------------------------|
B|----------------------------------------------------------------|
G|----------------------------------------------------------------|
D|----------------------------------------------------------------|
A|--------4---------------4---------------4---------------4-------|
E|2-------2-------2-------2-------2-------2-------2-------2-------|

e|----------------------------------------------------------------|
B|----------------------------------------------------------------|
G|----------------------------------------------------------------|
D|----------------------------------------------------------------|
A|--------4---------------4---------------4---------------4-------|
E|2-------2-------2-------2-------2-------2-------2-------2-------|

e|----------------------------------------------------------------|
B|----------------------------------------------------------------|
G|----------------------------------------------------------------|
D|--------4---------------4---------------4---------------4-------|
A|2-------2-------2-------2-------2-------2-------2-------2-------|
E|----------------------------------------------------------------|

e|----------------------------------------------------------------|
B|----------------------------------------------------------------|
G|----------------------------------------------------------------|
D|--------4---------------4---------------4---------------4-------|
A|2-------2-------2-------2-------2-------2-------2-------2-------|
E|----------------------------------------------------------------|

e|----------------------------------------------------------------|
B|----------------------------------------------------------------|
G|----------------------------------------------------------------|
D|--------7---------------7---------------7---------------7-------|
A|5-------5-------5-------5-------5-------5-------5-------5-------|
E|----------------------------------------------------------------|

e|----------------------------------------------------------------|
B|----------------------------------------------------------------|
G|----------------------------------------------------------------|
D|--------7---------------7---------------7---------------7-------|
A|5-------5-------5-------5-------5-------5-------5-------5-------|
E|----------------------------------------------------------------|

e|----------------------------------------------------------------|
B|----------------------------------------------------------------|
G|----------------------------------------------------------------|
D|--------4---------------4---------------4---------------4-------|
A|2-------2-------2-------2-------2-------2-------2-------2-------|
E|----------------------------------------------------------------|

e|----------------------------------------------------------------|
B|----------------------------------------------------------------|
G|----------------------------------------------------------------|
D|--------4---------------4---------------4---------------4-------|
A|2-------2-------2-------2-------2-------2-------2-------2-------|
E|----------------------------------------------------------------|

e|----------------------------------------------------------------|
B|----------------------------------------------------------------|
G|----------------------------------------------------------------|
D|----------------------------------------------------------------|
A|--------4---------------4---------------4---------------4-------|
E|2-------2-------2-------2-------2-------2-------2-------2-------|

e|----------------------------------------------------------------|
B|----------------------------------------------------------------|
G|----------------------------------------------------------------|
D|----------------------------------------------------------------|
A|--------4---------------4---------------4---------------4-------|
E|2-------2-------2-------2-------2-------2-------2-------2-------|

e|----------------------------------------------------------------|
B|----------------------------------------------------------------|
G|----------------------------------------------------------------|
D|--------4---------------4---------------4---------------4-------|
A|2-------2-------2-------2-------2-------2-------2-------2-------|
E|----------------------------------------------------------------|

e|----------------------------------------------------------------|
B|----------------------------------------------------------------|
G|----------------------------------------------------------------|
D|--------4---------------4---------------4---------------4-------|
A|2-------2-------2-------2-------2-------2-------2-------2-------|
E|----------------------------------------------------------------|

e|----------------------------------------------------------------|
B|----------------------------------------------------------------|
G|----------------------------------------------------------------|
D|--------7---------------7---------------7---------------7-------|
A|5-------5-------5-------5-------5-------5-------5-------5-------|
E|----------------------------------------------------------------|

e|----------------------------------------------------------------|
B|----------------------------------------------------------------|
G|----------------------------------------------------------------|
D|--------7---------------7---------------7---------------7-------|
A|5-------5-------5-------5-------5-------5-------5-------5-------|
E|----------------------------------------------------------------|

e|----------------------------------------------------------------|
B|----------------------------------------------------------------|
G|----------------------------------------------------------------|
D|--------4---------------4---------------4---------------4-------|
A|2-------2-------2-------2-------2-------2-------2-------2-------|
E|----------------------------------------------------------------|

e|----------------------------------------------------------------|
B|----------------------------------------------------------------|
G|----------------------------------------------------------------|
D|--------4---------------4---------------4---------------4-------|
A|2-------2-------2-------2-------2-------2-------2-------2-------|
E|----------------------------------------------------------------|

  Guitar II
e|2---------------------------------------------------------------|
B|2---------------------------------------------------------------|
G|2---------------------------------------------------------------|
D|4---------------------------------------------------------------|
A|4---------------------------------------------------------------|
E|2---------------------------------------------------------------|

            
            
Suggest correction
Creating personal tab
Creating personal tab
You can edit any tab online and save it as your Personal.

You can edit, replace or remove any tab part or add personal notes – all changes will be seen only by you.

Personal tabs can be accessed anytime from any device, even offline.
Learn more »
Give kudos to tab author, rate the tab!
1 2 3 4 5
comments
print report bad tab
guest
You may want to rate the tab now too:
select rating
Wanna post a correction for this tab? Suggest correction