Oops, an error
Loading. Please wait.

Zelik - Hit Me Baby One More Time Tab

981 views 1 this week
no commentswrite comment
1 2 3 4 5
please rate
add to favorites
launch autoscroll
font size
0
reset
how to read this tab
guitar tuner
Tab Pro tools
  • play this tab
  • loop segment
  • change instrument
  • show fretboard
  • metronome
Autoscroll
slow
fast
+/-
esc
set tempo
stop
Contributor
this is a new band from mexico that is trying to show music to the poople in mexico like
rock, metal and grunge.

   intro                      (x2) 

    x     x     x     x      x
    x     x     x     x      x
    x     x     x     x      x
e|-------------------------------|
B|-------------------------------|
G|--4-----------7----------------|
D|--4(x8)-4-----7(x8)-2-----4----|
A|--2-----4(x8)-5-----2(x4)-4(x4)|
E|--------2-----------O-----2----|

with distortion


   verse

    x     x     x
    x     x     x
    x     x     x
|-------------------------------|
B|-------------------------------|
G|--4-----------7----------------|
D|--4(x8)-4-----7(x8)-2-----4----|
A|--2-----4(x8)-5-----2(x4)-4(x4)|
E|--------2-----------O-----2----|
Oh baby...know    somethin... right here

    x           x       x
    x           x       x
    x           x       x
e|---------------------------------------------|
B|---------------------------------------------|
G|--4-------------------7----------------------|
D|--4(x8)-------4-------7(x8)-2-----4----------|
A|--2-----------4(x8)---5-----2(x4)-4(x4)------|
E|--------------2-------------O-----2----------|
  Oh baby...shouldn't...go...now...out of sight 


   prechorus
e|---------------------------------------------|
B|---------------------------------------------|
G|--4-------------------7----------------------|
D|--4(x8)-------4-------7(x8)-2--------4-------|
A|--2-----------4(x8)---5-----2(x4)----4(x4)---|
E|--------------2-------------O--------2-------|
   show me...  to be...baby...know... because


   chorus
e|---------------------------------------------|
B|---------------------------------------------|
G|--4---------------------7--------------------|
D|--4(x8)-------4---------7(x8)----2-----4-----|
A|--2-----------4(x8)-----5--------2(x4)-4(x4)-|
E|--------------2------------------O-----2-----|
  loneliness...killing...I must...still believe

e|---------------------------------------------|
B|---------------------------------------------|
G|--4-------------------7-------9\-------------|
D|--4(x8)-------4-------7(x8)---9\-------------|
A|--2-----------4(x8)---5-------7\-------------|
E|--------------2------------------------------|
   when I'm...my mind...sign...hit me..more time


   verse 2

    x           x       x
    x           x       x
    x           x       x
e|---------------------------------------------|
B|---------------------------------------------|
G|--4-------------------7----------------------|
D|--4(x8)-------4-------7(x8)-2-----4----------|
A|--2-----------4(x8)---5-----2(x4)-4(x4)------|
E|--------------2-------------O-----2----------|
  baby, baby...reason...    girl...blinded

   xx x xx x xx x xx x xx x xx x
   xx x xx x xx x xx x xx x xx x
   xx x xx x xx x xx x xx x xx x
e|---------------------------------------------|
B|---------------------------------------------|
G|--44-4-44-4-----------77-7-77-7--------------|
D|--44-4-44-4-44-4-44-4-77-7-77-7-2-----4------|
A|--22-2-22-2-44-4-44-4-55-5-55-5-2(x4)-4(x4)--|
E|------------22-2-22-2-----------O-----2------|
    ...baby... would do...      not...planned it


   -prechorus
   -chorus

   bridge part

    x      x      x      x
    x      x      x      x 
    x      x      x      x
e|---------------------------------------------|
B|---------------------------------------------|
G|--4-------------4----------------------------|
D|--4(x6)--4------4(x6)--4---------------------|
A|--2------4(x6)--2------4(x6)-----------------|
E|---------2-------------2---------------------|


e|---------------------------------------------|
B|---------------------------------------------|
G|--4-------------7----------------------------|
D|--4(x8)--4------7(x8)---2--------4-----------|
A|--2------4(x8)--5-------2(x4)----4(x4)-------|
E|---------2--------------O--------2-----------|
  Oh baby...was...know    

    x      x         x      x      x
    x      x         x      x      x
    x      x         x      x      x
e|---------------------------------------------|
B|---------------------------------------------|
G|-------------------4-------------------------|
D|--5------7---------4(x8)--2------4-----------|
A|--5(x8)--7(x8)-----2------2(x4)--4(x4)-------|
E|--3------5----------------O------2-----------|
  baby...shouldn't...go           I must confess

    x          x          x        x     x     
    x          x          x        x     x 
    x          x          x        x     x  
e|---------------------------------------------|
B|---------------------------------------------|
G|--4---------------------7--------------------|
D|--4(x8)-------4---------7(x8)----2-----4-----|
A|--2-----------4(x8)-----5--------2(x4)-4(x4)-|
E|--------------2------------------O-----2-----|
    loneliness...killing...now...know...believe

e|---------------------------------------------|
B|---------------------------------------------|
G|---------------------------------------------|
D|--5------7------5-------2-------4------------|
A|--5(x8)--7(x8)--5(x8)---2(rest)-4(rest)------|
E|--3------5------3-------O-------2------------|
  ...be...here...sign...hit me...one more time

    x           x         x        x     x 
    x           x         x        x     x   
    x           x         x        x     x  
e|---------------------------------------------|
B|---------------------------------------------|
G|--4---------------------7--------------------|
D|--4(x8)-------4---------7(x8)----2-----4-----|
A|--2-----------4(x8)-----5--------2(x4)-4(x4)-|
E|--------------2------------------O-----2-----|
  my loneliness...killing...I...still...believee

e|-----------------------------------------------|
B|-----------------------------------------------|
G|--4-------------------7------------------------|
D|--4(x8)-------4-------7(x8)---2--------4-------|
A|--2-----------4(x8)---5-------2(x4)----4(x4)---|
E|--------------2---------------0--------2-------|
   when I'm...my mind...sign...hit me..more time

e|---------------------------------------------|
B|---------------------------------------------|
G|--4---------------------7--------------------|
D|--4(x8)-------4---------7(x8)----2-----4-----|
A|--2-----------4(x8)-----5--------2(x4)-4(x4)-|
E|--------------2------------------O-----2-----|
  my loneliness...killing...I...still...believee

e|-----------------------------------------------------|
B|-----------------------------------------------------|
G|--4-------------------7-------9\---------------------|
D|--4(x8)-------4-------7(x8)---9\------------------3--|
A|--2-----------4(x8)---5-------7\------------------3--|
E|--------------2-----------------------------------1--|
   when I'm...my mind...sign...hit me..more time
comments
We did not receive enough feedback on this tab! Please rate:
print report bad tab
1 2 3 4 5
I want to post or [tab]
guest
You may want to rate the tab now too:
select rating
Please do not post tabs as comments. Select "correction" instead!