Oops, an error
Loading. Please wait.

Zen - Running Out Of Time Tab

27 views 1 this week
no commentswrite comment
1 2 3 4 5
3 more votes to show rating
add to favorites
launch autoscroll
font size
0
reset
how to read this tab
guitar tuner
Autoscroll
slow
fast
+/-
esc
set tempo
stop
Help us to improve Ultimate-Guitar.com Take our survey!
×
Author
Difficulty
Tuning
intermediate
C# G# C# F# A# D#
---------------------------------------------------------------------------
                             Running out of Time - ZEN
---------------------------------------------------------------------------
Tabbed by: niggl90

Tuning: Drop C#

Video: http://www.youtube.com/watch?v=mcE0BzxxSmg

Part 1
d#|------------------------------------------------|
A#|------------------------------------------------|
F#|------------------------------------------------| 
C#|------------------------------------------------|
G#|------------------------------------------------|
C#|1-1-1-1-1-1-1-1-0-0-0-0-0-0-0-0-4-4-4-4-4-4-4-4-|


d#|----------------------------------------------------|
A#|----------------------------------------------------|
F#|----------------------------------------------------| 
C#|----------------------------------------------------|
G#|----------------------------------------------------|
C#|6-6-6-6-7-7-7-7-12-12-12-12-12-12-12-12-11-11-11-11-|


d#|---------------------------------------------|
A#|---------------------------------------------|
F#|---------------------------------------------| 
C#|---------------------------------------------|
G#|-----------------4-----7-----4-----7---------|
C#|11-11-11-11--4-4-4-4-4-7-4-4-4-4-4-7-4-4-7\--|
PM             |---| |--|   |--|  |--|  |--|
                                          End Part 1


Repeat Part 1 1x




0:21 

Part 2
d#|------------------------------------------------|
A#|------------------------------------------------|
F#|------------------------------------------------| 
C#|------------------------------------------------|
G#|------------------------------------------------|
C#|1-1-1-1-1-1-1-1-0-0-0-0-0-0-0-0-4-4-4-4-4-4-4-4-|


Guitar 1
|d#|----------------------------------------------------||
|A#|----------------------------------------------------||
|F#|----------------------------------------------------||
|C#|----------------------------------------------------||
|G#|----------------------------------------------------||
|C#|6-6-6-6-7-7-7-7-12-12-12-12-12-12-12-12-11-11-11-11-||
|                                                        |
|                                                        |
|Guitar 2                                                |
|d#|----------------------------------------------------||
|A#|----------------------------------------------------||
|F#|----------------------------------------------------||
|C#|----------------------------------------------------||
|G#|----------------------------------------------------||
|C#|6-6-6-6-7-7-7-7-12-12-12-12-12-12-12-12-14-14-14-14-||




d#|----------------------------|
A#|----------------------------|
F#|----------------------------| 
C#|----------------------------|
G#|-4-4---4-4---4-4---4-4\-----|
C#|-4-4---4-4---4-4---4-4\-----|
                      End Part 2


0:32

Part 3
d#|-------------------------------------------------------|
A#|-------------------------------------------------------|
F#|-------------------------------------------------------| 
C#|-------------------------------------------------------|
G#|-------------------------------------------------------|
C#|1h4--1-1--1h4--1-1--1h4--1-1--1h4--1-1--1h4--1-1--1h4--|
PM     |--|      |--|      |--|      |--|      |--|


d#|-------------------------|
A#|-------------------------|
F#|-------------------------| 
C#|-------------------------|
G#|-------------------------|
C#|1-1--1h4--1-1--1h4--1-1--|
PM|--|      |--|      |--|


d#|-------------------------------------------------------|
A#|-------------------------------------------------------|
F#|-------------------------------------------------------| 
C#|-------------------------------------------------------|
G#|1h4--1-1--1h4--1-1--1h4--1-1--1h4--1-1--1h4--1-1--1h4--|
C#|-------------------------------------------------------|
PM     |--|      |--|      |--|      |--|      |--|


d#|-------------------------|
A#|-------------------------|
F#|-------------------------| 
C#|-------------------------|
G#|1-1--1h4--1-1--1h4--1-1--|
C#|-------------------------|
PM|--|      |--|      |--|


d#|-------------------------------------------------------|
A#|-------------------------------------------------------|
F#|-------------------------------------------------------| 
C#|-------------------------------------------------------|
G#|-------------------------------------------------------|
C#|6h9--6-6--6h9--6-6--6h9--6-6--6h9--6-6--6h9--6-6--6h9--|
PM     |--|      |--|      |--|      |--|      |--|


d#|----------------------------|
A#|----------------------------|
F#|----------------------------| 
C#|----------------------------|
G#|----------------------------|
C#|6-6--6h9--6-6--6h9--6-6--6h9|
PM|--|      |--|      |--|


d#|-------------------------------------------------------|
A#|-------------------------------------------------------|
F#|-------------------------------------------------------| 
C#|-------------------------------------------------------|
G#|-------------------------------------------------------|
C#|1h4--1-1--1h4--1-1--1h4--1-1--1h4--1-1--1h4--1-1--1h4--|
PM     |--|      |--|      |--|      |--|      |--|


d#|-------------------------|
A#|-------------------------|
F#|-------------------------| 
C#|-------------------------|
G#|-------------------------|
C#|1-1--1h4--1-1--1h4--1-1--|
PM|--|      |--|      |--|
                     End Part 3


0:53

Part 4
d#|---------------------------------|
A#|---------------------------------|
F#|---------------------------------| 
C#|---------------------------------|
G#|-9----8----4----6----9----8------|
C#|-9----8----4----6----9----8------|
                             End Part 4


Repeat Part 2 1x (1:09)
Repeat Part 3 1x (1:20)
Repeat Part 4 1x (1:41)


1:57
d#||---------------------------------||--------------------------------||
A#||---------------------------------||--------------------------------||
F#||---------------------------------||--------------------------------|| 
C#||---------------------------------||--------------------------------||
G#||------1-1-1-------2-2-2--2h4--2~-||------1-1-1-------2-2-2--2h4--2~||
C#||1-1-1-------2-2-2----------------||1-1-1-------2-2-2---------------||
PM                                    |-----|     |-----|    


d#||---------------------------------||--------------------------------|
A#||---------------------------------||--------------------------------|
F#||---------------------------------||--------------------------------| 
C#||---------------------------------||--------------------------------|
G#||------6-6-6-------7-7-7--7h9--7~-||1-1--1-1--1-1--1-1---1----/6~\5~|
C#||6-6-6-------7-7-7----------------||1-1--1-1--1-1--1-1---1----------|
PM |-----|     |-----|                |--|  |--| |--| |--|


2:22
d#||-----------------|
A#||-----------------|
F#||-----------------| 
C#||-----------------|
G#||1---3---6---1----|
C#||1---3---6---1----|


2:32

Guitar 1 repeats 4 chords above 1x
Guitar 2
d#|--------------------------------------------|
A#|--------------------------------------------|
F#|--------------------------------------------| 
C#|1h4--1-1--1h4--1-1--1h4--1-1--1h4--1-1------|
G#|--------------------------------------------|
C#|--------------------------------------------|
PM     |--|      |--|      |--|      |--|      


d#|--------------------------------------------|
A#|--------------------------------------------|
F#|--------------------------------------------| 
C#|3h6--3-3--3h6--3-3--3h6--3-3--3h6--3-3------|
G#|--------------------------------------------|
C#|--------------------------------------------|
PM     |--|      |--|      |--|      |--|      


d#|---------------------------------------------|
A#|---------------------------------------------|
F#|---------------------------------------------| 
C#|6h9--6-6--6h9--6-6--6h9--6-6--6h9--6-6-------|
G#|---------------------------------------------|
C#|---------------------------------------------|
PM     |--|      |--|      |--|      |--|      


d#|-------------------------------------------|
A#|-------------------------------------------|
F#|-------------------------------------------| 
C#|1h4--1-1--1h4--1-1--1h4--1-1--1h4--1-1-----|
G#|-------------------------------------------|
C#|-------------------------------------------|
PM     |--|      |--|      |--|      |--|      



2:42
d#|-----------------------------------------------|
A#|-----------------------------------------------|
F#|-----------------------------------------------| 
C#|-----------------------------------------------|
G#|-9----8----4----6----9----8----4----6----9----8|
C#|-9----8----4----6----9----8----4----6----9----8|
                    

Repeat Part 1 (3:09)
Repeat Part 2 (3:20)


| /   slide up
| h   hammer-on
| \   slide down
| ~   vibrato
Suggest correction
Give kudos to tab author, rate the tab!
1 2 3 4 5
comments
print report bad tab
guest
You may want to rate the tab now too:
select rating
Wanna post a correction for this tab? Suggest correction