Oops, an error
Loading. Please wait.

Zero - Lucy Tab

240 views 1 this week
no commentswrite comment
1 2 3 4 5
please rate
add to favorites
launch autoscroll
font size
0
reset
how to read this tab
guitar tuner
Autoscroll
slow
fast
+/-
esc
set tempo
stop
Help us to improve Ultimate-Guitar.com Take our survey!
×
Author
Difficulty
novice
-------------------------------------------------------------------------------
                             LUCY - Zero
-------------------------------------------------------------------------------

This is one of the best bands in India.
Links:  
http://www.myspace.com/zeroi


Tabbed by: Mark
Email: only4mark@yahoo.com

This is the version from their album 'Hook'. The version on 'Albummed' has different riffs.

Tuning: Eb Ab Db Gb Bb Eb

Intro:
e|------------------------------------------------------------------|
B|------------------------------------------------------------------|
G|------------------------------------------------------------------|
D|---------0---0------0h1h2-------------0---0-----------------------|
A|---0h1h2---2------2------------0h1h2----2------2p1p0--------------|
E|----------------------------------------------------h4p3p0--------|

e|------------------------------------------------------------------|
B|------------------------------------------------------------------|
G|------------------------------------------------------------------|
D|---------0---0-----0h1h2-------------0---0------------------------|
A|---0h1h2---2-----2-------------0h1h2---2-----5---6----------------|
E|---------------------------------------------3---4----------------|


Verse:
e|-------------------------------|------------------------|
B|-------------------------------|------------------------|
G|------------------------0------|-variation--------------|
D|----------------------2(5)2----|-for the----------------|
A|----00--00--00--00--0----------|-last part--------3-----|
E|-------------------------------|-of intro-----3-5---5---|
  pm.................


Chorus:
e|---------------------------------------------|
B|---------------------------------------------|
G|---------0------------0----------------------|
D|------4------------2-----2-------------------|
A|---5--------3--------------------------------|
E|---------------------------------------------|
 let ring.......................

VERSE RIFF

Little lick 
(sounds better playing them all as hammer-ons):
e|-------------------------------5-------|
B|------5-7-5-----7--5-------5-----------|
G|----6-------6------------6---7---------|
D|--7-----------7--------7---------------|
A|---------------------------------------|
E|---------------------------------------|

VERSE

CHORUS

Quiet interlude (w/flanger, low volume):
e|----------------------------|
B|----------------------------|
G|----------(2)-----------0---| There are some misc slow Am pentatonic
D|------(2)------------2------| licks played over this part
A|----0-------------3---------|
E|----------------------------|
let ring.....................

(raise volume/gain) 
7/8
e|-------------------|
B|-------------------|
G|-------------------|
D|-----------------2-|
A|---1---2---3---4-3-|
E|---2---3---4---5---|

or
e|-------------------|
B|-------------------|
G|-------------------|
D|-------------------|
A|---------------0-3-|
E|---2---3---4-------|


CHORUS

End Riff:
e|------------------------------|
B|------------------------------|
G|------------------------------|  
D|------------------------------|
A|----------3---5-3---------3---|
E|--2-3-4-5---5-----2-3-4-5---5-|


| /  slide up
| \  slide down
| h  hammer-on
| p  pull-off
| ~  vibrato
| +  harmonic
| x  Mute note
===============================================================================
Suggest correction
Give kudos to tab author, rate the tab!
1 2 3 4 5
comments
print report bad tab
guest
You may want to rate the tab now too:
select rating
Please do not post tabs as comments. Select "correction" instead!