Oops, an error
Loading. Please wait.

Zerosystem - Armada Bass Tab

63 views 1 this week
no commentswrite comment
1 2 3 4 5
3 more votes to show rating
add to favorites
launch autoscroll
font size
0
reset
guitar tuner
Autoscroll
slow
fast
+/-
esc
set tempo
stop
Help us to improve Ultimate-Guitar.com Take our survey!
×
Author
Difficulty
intermediate
*************************
Zerosystem - Armada
*************************

-tabbed by "zero83"
-Tuning: CGDGC
-Also visit my band at: www.youtube.com/user/ZEROSYSTEMband/videos
-PLEASE RATE AND COMMENT! =)

STROPHE 4x
C-----------------------------------------------------------------------------|
G---22---22---22---19-------19-----19-----22---22---22---19-------19-----19---|
D-0----0----0----0------0-0------0------0----0----0----0------0-0------0------|
G-----------------------------------------------------------------------------|
C-----------------------------------------------------------------------------|

C-----------------------------------------------------------------------------|
G---14---14---14---12-------12-----12-----10---10---10---7--------7-----------|
D-0----0----0----0------0-0------0------0----0----0----0------0-0-------------|
G---------------------------------------------------------------------12-10-9-|
C-----------------------------------------------------------------------------|


REFRAIN 1x
C---------------------------21-----21-----------------------------21-----21---|
G---22---22---22---19---------------------22---22---22---19-------------------|
D-0----0----0----0------0-0------0------0----0----0----0------0-0------0------|
G-----------------------------------------------------------------------------|
C-----------------------------------------------------------------------------|

C-----------------------------------------------------------------------------|
G---14---14---14---12-------12-----12-----10---10---10---7--------7-----------|
D-0----0----0----0------0-0------0------0----0----0----0------0-0-------------|
G---------------------------------------------------------------------12-10-9-|
C-----------------------------------------------------------------------------|


STROPHE 3x


REFRAIN 2x


OUTRO 1x
C-----------------------------------------------------------------------------|
G---22---22---22---19~~-------------------22---22---22---19~~-----------------|
D-0----0----0----0----------------------0----0----0----0----------------------|
G-----------------------------------------------------------------------------|
C-----------------------------------------------------------------------------|

C-----------------------------------------------------------------------------|
G---14---14---14---12~~-------------------10---10---10----7~~-----------------|
D-0----0----0----0----------------------0----0----0----0--0~~-----------------|
G-----------------------------------------------------------------------------|
C-----------------------------------------------------------------------------|
Suggest correction
Give kudos to tab author, rate the tab!
1 2 3 4 5
comments
print report bad tab
guest
You may want to rate the tab now too:
select rating
Wanna post a correction for this tab? Suggest correction