Oops, an error
Loading. Please wait.

Zerosystem - Disco Song Bass Tab

92 views 1 this week
no commentswrite comment
1 2 3 4 5
3 more votes to show rating
add to favorites
launch autoscroll
font size
0
reset
guitar tuner
Autoscroll
slow
fast
+/-
esc
set tempo
stop
Help us to improve Ultimate-Guitar.com Take our survey!
×
Author
Difficulty
intermediate
*********************************
ZEROSYSTEM - Disco song
*********************************

-tabbed by "zero83"
-Tuning: CGDGC
-Also visit my band at: www.youtube.com/user/ZEROSYSTEMband/videos
-PLEASE RATE AND COMMENT! =)


0:00 Guitar only
 C------------------|
 G------------------|
 D------------------|
 G------------------|
 C------------------|

0:25                 0:31 < means getting louder
 C------------------|------------------|
 G------------------|------------------|
 D------------------|------------------|
 G------------------|------------------|
 C-0~~--------------|(0)<<<<<<<<<-12\\-|

0:32 REFRAIN
 C---------------4x-|---------------8x-|
 G------------------|------------------|
 D------------------|------------------|
 G------------------|------------------|
 C-0---0--0--1-3----|-0---00-0--1-3----|

0:55 VERSE 12x
 C------------------|
 G------------------|
 D------------------|
 G------------6-8---|
 C-0---0---0--------|

1:18 REFRAIN

1:42 BREAK
 C------------------|
 G------------------|
 D------------------|
 G------------------|
 C-0~~--------------|

1:50
 C---------------4x-|---------------4x-|
 G------------------|------------------|
 D------------------|------------------|
 G-----5---1--------|-----55551111-----|
 C-0-----------3-2--|-0000--------3322-|

2:20
 C------------------|------------------|
 G------------------|------------------|
 D------------------|------------------|
 G------------------|------------------|
 C-0~~--------------|-------------12\\-|

 C---------------3x-|---------------1x-|
 G------------------|------------------|
 D------------------|------------------|
 G------------------|------------------|
 C-0---00-0--1-3----|-0---00-0--1------|
Suggest correction
Give kudos to tab author, rate the tab!
1 2 3 4 5
comments
print report bad tab
guest
You may want to rate the tab now too:
select rating
Wanna post a correction for this tab? Suggest correction