Oops, an error
Loading. Please wait.

Zerosystem - Fick Dich Bass Tab

85 views 1 this week
no commentswrite comment
1 2 3 4 5
please rate
add to favorites
launch autoscroll
font size
0
reset
guitar tuner
Autoscroll
slow
fast
+/-
esc
set tempo
stop
Help us to improve Ultimate-Guitar.com Take our survey!
×
Author
Difficulty
intermediate
******************************************
Zerosystem - Fick Dich
******************************************

-tabbed by "zero83"
-Tuning: CGDGC
-alle Noten klingen lassen, außer bei * = Note stoppen
-Also visit my band at: www.youtube.com/user/ZEROSYSTEMband/videos
-PLEASE RATE AND COMMENT! =)

0:02
STROPHE
 ----------------------------------|4x
 ----------------------------------|
 ----------------------------------|
 -----5-----3-----1----------------|
 -0-------0-----0------------------|

 ----------------------------------|8x
 ----------------------------------|
 ----------------------------------|
 -----5-----3-----1----------------|
 -0-------0-----0--------------0---|

 ----------------------------------|
 ----------------------------------|
 ----------------------------------|
 -----5-----3-----1----------------|
 -0-------0-----0--------------\\--|

 ----------------------------------|
 ----------------------------------|
 ----------------------------------|
 ----------------------------------|
 -5-5-5-----------5--5-------------|

0:53
REFRAIN (beginnt auf "4+")
 ---|------------------------------|4x
 ---|------------------------------|
 ---|------------------------------|
 ---|------------------------------|
 -00|0-1-3-0-1-3---000-1-3-0-1-0---|

1:07
STROPHE
 ----------------------------------|3x
 ----------------------------------|
 ----------------------------------|
 -----5-----3-----1----------------|
 -0-------0-----0--------------0---|

 ----------------------------------|
 ----------------------------------|
 ----------------------------------|
 -----5-----3-----1*---------------|
 -0-------0-----0------------------|

 ----------------------------------|4x
 ----------------------------------|
 ----------------------------------|
 -----5-----3-----1-----1----------|
 -0-------0-----0-----0--------0---|

 ----------------------------------|
 ----------------------------------|
 ----------------------------------|
 -----5-----3-----1-----1----------|
 -0-------0-----0-----0--------\\--|

 ----------------------------------|
 ----------------------------------|
 ----------------------------------|
 ----------------------------------|
 -5-5-5-----------5--5-------------|

1:44
REFRAIN
 ---|------------------------------|4x
 ---|------------------------------|
 ---|------------------------------|
 ---|------------------------------|
 -00|0-1-3-0-1-3*--000-1-3-0-1-0*--|

 ---|------------------------------|4x
 ---|------------------------------|
 ---|------------------------------|
 ---|------------------------------|
 -00|0-1-3-0-1-3---000-1-3-0-1-0---|

2:12
C-TEIL
 ----------------------------------|
 ----------------------------------|
 ----------------------------------|
 -66666666666668885555555555555555-|
 ----------------------------------|

 ----------------------------------|
 ----------------------------------|
 -8888888888888888-----------------|
 ----------------------------------|
 -----------------6666666666666666-|

 ----------------------------------|
 ----------------------------------|
 ----------------------------------|
 -66666666666668885555555555555555-|
 ----------------------------------|

 ----------------------------------|
 ----------------------------------|
 -8888888888888888-----------------|
 ----------------------------------|
 -----------------6666666666666666-|

2:41
REFRAIN
 ---|------------------------------|4x
 ---|------------------------------|
 ---|------------------------------|
 ---|------------------------------|
 -00|0-1-3-0-1-3*--000-1-3-0-1-0*--|

2:56
BREAK
 ----------------------------------|4x
 ----------------------------------|
 ----------------------------------|
 -66666666666668885555555555555555-|
 ----------------------------------|

 ----------------------------------|
 ----------------------------------|
 -8888888888888888-----------------|
 ----------------------------------|
 -----------------6666666666666666-|

 ----------------------------------|
 ----------------------------------|
 ----------------------------------|
 -66666666666668885555555555555555-|
 ----------------------------------|

3:38
 ---|------------------------------|4x
 ---|------------------------------|
 ---|------------------------------|
 ---|------------------------------|
 -00|0-1-3-0-1-3*--000-1-3-0-1-0*--|
Suggest correction
Give kudos to tab author, rate the tab!
1 2 3 4 5
comments
print report bad tab
guest
You may want to rate the tab now too:
select rating
Please do not post tabs as comments. Select "correction" instead!