Oops, an error
Loading. Please wait.

Zerosystem - Teufelskreis Bass Tab

38 views 1 this week
no commentswrite comment
1 2 3 4 5
please rate
add to favorites
launch autoscroll
font size
0
reset
guitar tuner
Tab Pro tools
  • play this tab
  • loop segment
  • change instrument
  • show fretboard
  • metronome
Autoscroll
slow
fast
+/-
esc
set tempo
stop
Contributor
Difficulty
intermediate
******************************
Zerosystem - Teufelskreis
******************************

-tabbed by "zero83"
-Tuning: CGDGC
-Also visit my band at: www.youtube.com/user/ZEROSYSTEMband/videos

DRUM INTRO
 ---------------------------------|
 ---------------------------------|
 ---------------------------------|
 ---------------------------------|
 ---------------------------------|

STROPHE 2x
 -----------------------------------------------------------------|
 -7---6---5---6---7---6---5---6---12--11--10--11--12--11--10--11--|
 ---0---0---0---0---0---0---0---0---0---0---0---0---0---0---0---0-|
 -----------------------------------------------------------------|
 -----------------------------------------------------------------|

 -----------------------------------------------------------------|
 -15--14--13--14--15--14--13--14--9---8---7---8---9---8---7---8---|
 ---0---0---0---0---0---0---0---0---0---0---0---0---0---0---0---0-|
 -----------------------------------------------------------------|
 -----------------------------------------------------------------|

REFRAIN
 -----------------------------------------------------------------|
 -----------------------------------------------------------------|
 -----------------------------------------------------------------|
 -----------------------------------------------------------------|
 -0000131000003---000013100-6-5---0000131000003---000013100-6-5---|

 ---------------------------------------------------------------------|
 ---------------------------------------------------------------------|
 ---------------------------------------------------------------------|
 ---------------------------------------------------------------------|
 -00-01-12-23-34---00-01-12-23-34---00-01-12-23-34---00-01-12-23-34---|

 ---------------------------------------------------------------------|
 ---------------------------------------------------------------------|
 ---------------------------------------------------------------------|
 ---------------------------------------------------------------------|
 -0---1-2---3-4-4-0---1-2---3-4-4-0---1-2---3-4-4-0---1-2---3-4-4-----|

 -----------------------------------------------------------------|
 -----------------------------------------------------------------|
 -----------------------------------------------------------------|
 -----------------------------------------------------------------|
 -0~-------0\12---000013100-6-5---0000131000003---000013100-6-5---|

STROPHE 2x


REFRAIN


STROPHE 2x


OUTRO
 -----------------------------------------------------------------|
 -----------------------------------------------------------------|
 -----------------------------------------------------------------|
 -----------------------------------------------------------------|
 -0000131000003---000013100-6-5---0000131000003---000013100-6-5---|
comments
We did not receive enough feedback on this tab! Please rate:
print report bad tab
1 2 3 4 5
I want to post or [tab]
guest
You may want to rate the tab now too:
select rating
Please do not post tabs as comments. Select "correction" instead!