Oops, an error
Loading. Please wait.

Zerosystem - The Truth Bass Tab

18 views 1 this week
no commentswrite comment
1 2 3 4 5
please rate
add to favorites
launch autoscroll
font size
0
reset
guitar tuner
Autoscroll
slow
fast
+/-
esc
set tempo
stop
Help us to improve Ultimate-Guitar.com Take our survey!
×
Contributor
Difficulty
zero83 662
intermediate
*******************************************
Zerosystem - The truth
*******************************************

-Tabbed by "zero83"
-Tuning: CGDGC
-Also visit my band at: www.youtube.com/user/ZEROSYSTEMband/videos

INTRO 2x
 -14--14--14--14--14--14--14--14--- -16--16--16--16--16--16--16--16---|
 ---14--14--14--14--14--14--14--14- ---14--14--14--14--14--14--14--14-|
 ---------------------------------- ----------------------------------|
 ---------------------------------- ----------------------------------|
 ---------------------------------- ----------------------------------|

 -17--17--17--17--17--17--17--17--- -16--16--16--16--16--16--16--16---|
 ---15--15--15--15--15--15--15--15- ---14--14--14--14--14--14--14--14-|
 ---------------------------------- ----------------------------------|
 ---------------------------------- ----------------------------------|
 ---------------------------------- ----------------------------------|

STROPHE A 2x
 ---------------------------------- ----------------------------------|
 ---------------------------------- ----------------------------------|
 ---------------------------------- ----------------------------------|
 -0--------------0---0------------- -3--------------3---3-------------|
 ---------------------------------- ----------------------------------|

INTRO 1x

STROPHE B 1x
 ---------------------------------- ----------------------------------|
 ---------------------------------- ----------------------------------|
 ---------------------------------- ----------------------------------|
 -0--------------0---0------------- -3--------------3---3-------------|
 ---------------------------------- ----------------------------------|

 ---------------------------------- ----------------------------------|
 ---------------------------------- ----------------------------------|
 ---------------------------------- ----------------------------------|
 -0--------------0---0------------- -3--------------3---3-------------|
 ---------------------------------- ---------------------------1---1--|

REFRAIN A 2x
 ---------------------------------- ----------------------------------|
 ---------------------------------- ----------------------------------|
 ---------------------------------- ----------------------------------|
 ---------------------------------- ----------------------------------|
 -2-------2------2---2------2------ -5-------5------5---5------5------|

 ---------------------------------- ----------------------------------|
 ---------------------------------- ----------------------------------|
 ---------------------------------- ----------------------------------|
 ---------------------------------- ----------------------------------|
 -4-------4------4---4------4------ -7-------7------7---7------1---1--|

INTRO 1x

STROPHE B 1x

REFRAIN A 2x

REFRAIN B 2x
 ---------------------------------- ----------------------------------|
 ---------------------------------- ----------------------------------|
 ---------------------------------- ----------------------------------|
 ---------------------------------- ----------------------------------|
 -2-2-2-2-2-2-2-2-2-2-2-2-2-2-2-2-- -5-5-5-5-5-5-5-5-5-5-5-5-5-5-5-5--|

 ---------------------------------- ----------------------------------|
 ---------------------------------- ----------------------------------|
 ---------------------------------- ----------------------------------|
 ---------------------------------- ----------------------------------|
 -4-4-4-4-4-4-4-4-4-4-4-4-4-4-4-4-- -7-7-7-7-7-7-7-7-7-7-7-7-7-1---1--|

BREAK 1x
 ----------------------------------|
 ----------------------------------|
 ----------------------------------|
 ----------------------------------|
 -let last note ring---------------|

INTRO 2x

SOLO 2x
 ---------------------------------- ----------------------------------|
 ---------------------------------- ----------------------------------|
 ---------------------------------- ----------------------------------|
 -7-7-7-7-7-7-7-7-7-7-7-7-7-7-7-7-- -2-2-2-2-2-2-2-2-2-2-2-2-2-2-2-2--|
 ---------------------------------- ----------------------------------|

 ---------------------------------- ----------------------------------|
 ---------------------------------- ----------------------------------|
 ---------------------------------- ----------------------------------|
 ---------------------------------- -2-2-2-2-2-2-2-2-2-2-2-2-2-2-2-2--|
 -2-2-2-2-2-2-2-2-2-2-2-2-2-2-2-2-- ----------------------------------|

 ---------------------------------- ----------------------------------|
 ---------------------------------- ----------------------------------|
 ---------------------------------- ----------------------------------|
 -0-0-0-0-0-0-0-0-0-0-0-0-0-0-0-0-- -3-3-3-3-3-3-3-3-3-3-3-3-3-3-3-3--|
 ---------------------------------- ----------------------------------|

 ---------------------------------- ----------------------------------|
 ---------------------------------- ----------------------------------|
 ---------------------------------- ----------------------------------|
 -0-0-0-0-0-0-0-0-0-0-0-0-0-0-0-0-- -3-3-3-3-3-3-3-3-3-3-3-3-3-3-3-3--|
 ---------------------------------- --------------------------(1---1)-|
                  play those notes only at the end of the solo ^   ^

REFRAIN B 2x

OUTRO
 -14--14--14--14--14--14--14--14--- -14--14--14--14--14--14--14--14----|
 ---14--14--14--14--14--14--14--14- ---14--14--14--14--14--14--14--14~-|
 ---------------------------------- -----------------------------------|
 ---------------------------------- -----------------------------------|
 ---------------------------------- -----------------------------------|
comments
We did not receive enough feedback on this tab! Please rate:
print report bad tab
1 2 3 4 5
I want to post or [tab]
guest
You may want to rate the tab now too:
select rating
Please do not post tabs as comments. Select "correction" instead!