Oops, an error
Loading. Please wait.

Zilmen - Whos Thinking About You chords

126 views 1 this week
no commentswrite comment
1 2 3 4 5
3 more votes to show rating
add to favorites
×
Save as Personal and add changes to this tab that will be seen only by you. Learn more ›
×
You can save this tab as Personal to edit and correct it or add notes. All changes will be seen only by you. Learn more »
launch autoscroll
font size
0
reset
transpose
0
reset
simplify chords
display chords
guitar tuner
edit
Autoscroll
slow
fast
+/-
esc
set tempo
stop
Author
Difficulty
About this tab version
Changing some of the chord and and make new chorus progression, so that the whole song sound much better and much more the way I feel it. Was this info helpful? Yes No
Strumming
There is no strumming pattern for this song yet. and get +5 IQ
Žilmen - Who's thinking about you



Play the G like  --3--
                 --3--
                 --0--
                 --0--
                 --2--
                 --3--


Intro: 

   G             C         D           Dsus2           G
e----3---3---0-----0---0---2-----2---2---0-----0---0---3-----
B-----3---3---------1---1---------3---3---------3---3--------
G------0---0---------0---0---------2---2---------2---2-------
D----------------3-------------0-------------0---------------      
A------------------------------------------------------------
E--3---------------------------------------------------------

   G             C         D           Dsus4           D          Dsus4
e----3---3---0-----0---0---2-----2---2---3-----3---3---2----2---2---3-----3---3---3--|
B-----3---3---------1---1---------3---3---------3---3--------3---3---------3---3-----|
G------0---0---------0---0---------2---2---------2---2--------2---2---------2---2----|
D----------------3-------------0-------------0------------0------------0-------------|     
A------------------------------------------------------------------------------------|
E--3---------------------------------------------------------------------------------|



 G                 C         G
I’m still hoping there is a way 
      D                      Dsus2
that you could stay a little longer
      G                  C        G
Hear all the things that I wanna say
     D                 Dsus4
coz you are making me stronger.

  G              C     G
There is not a single day 
D       Dsus2
without thinking about you
G                         C           G
I keep dreaming that you feel it the same way 
    D            Dsus4
and time to time missing me too. 


Chorus:
Em                A
I wanna tell you you are my butterfly
D             Em
flying in my heart
Em                   A              D  G
When I’m with you I feel like I can fly


  G           C        G     
Every time I see your smile 
          D                Dsus2
there's nothing but you and me
      G                  C            G
the whole world stops spinning for a while
     D              Dsus4  
it makes me feel so free... like a bird.

G           C            G
You have a very special heart
 D              Dsus2
that can melt my own
   G           C         G
we both are sharing the same part 
     D          Dsus4
of unique crazy soul.


Chorus:


G      C            G
I can talk to you forever 
      D            Dsus2
and still be having fun
    G             C            G
for me no matter what is the weather
     D          Dsus4
coz you are my sunshine. 

 G
You are my Wonderwall
 C          G
you are my light 
     D
it's you who I want to call 
Dsus2
through day and night. 
G                   C G
Just so I could say hey
             D                     Dsus4
I've been thinking about you every minute of my day.


Chorus:


G                   C       G
I will play for you on my guitar 
 D              Dsus2
Let Her Go and Falling Slowly
       G                    C             G
in my heart you're shining like a little star
  D                          Dsus4
that's why I'm never feeling lonely. 

G              C        G
When I wake up in the morning 
     D                  Dsus2
I'd like to be there to kiss you
 G               C         G
tell you gently where I'm going 
 D              Dsus4
and that I will miss you.  



Outro:

     G             C         D           Dsus2             G
e----3---3---0-----0---0---2-----2---2---0-----0---0---0---3-|
B-----3---3---------1---1---------3---3---------3---3------3-|
G------0---0---------0---0---------2---2---------2---2-----0-|
D----------------3-------------0-------------0-------------0-|   
A----------------------------------------------------------2-|
E--3-------------------------------------------------------3-|
Suggest correction
Creating personal tab
Creating personal tab
You can edit any tab online and save it as your Personal.

You can edit, replace or remove any tab part or add personal notes – all changes will be seen only by you.

Personal tabs can be accessed anytime from any device, even offline.
Learn more »
Give kudos to tab author, rate the tab!
1 2 3 4 5
comments
print report bad tab
guest
You may want to rate the tab now too:
select rating
Wanna post a correction for this tab? Suggest correction