Oops, an error
Loading. Please wait.

Zion Youth - One More River To Cross Bass Tab

774 views 1 this week
no commentswrite comment
1 2 3 4 5
3 more votes to show rating
add to favorites
launch autoscroll
font size
0
reset
guitar tuner
Autoscroll
slow
fast
+/-
esc
set tempo
stop
Help us to improve Ultimate-Guitar.com Take our survey!
×
Author
------------------------------------------------------------------------
One One More River to Cross - Zion Youth
------------------------------------------------------------------------

Tabbed By :Clyde Hamilton
e-mail: chiggy53@yahoo.com

This is my first tab. it’s a great song my church band plays. Its good for warmups too.


Tuning: Standard (EADGBe)

Riff 1
G|-------------5-----------------------5------------------|
D|-------5--7-----7--5-----------5--7-----7--5------------|
A|-3--7-----------------7--3--7---------------------------|
E|--------------------------------------------------------|

Riff 2
G|--------------------------------------------------------|
D|-------------3------------------------------------------|
A|-------3--5-----5--3-----------3--5--3--3---------------|
E|-1--5-----------------5--1--5---------------------------|

Riff 3
G|-------------5------------------------------------------|
D|-------5--7-----7--5-----------5--7---------------------|
A|-3--7-----------------7--3--7--------------7--9---------|
E|-------------------------------------5--9---------------|

Riff 4
G|-------------5------------------------------------------|
D|-------5--7-----7--5------------------------------------|
A|-3--7-----------------7--------3--5--3--7--------3--5--3|
E|-------------------------1--5--------------1--5---------|



Order
Riff 1\ 
Riff 2 \  Play 4
Riff 3 /  Times
Riff 4/

Suggest correction
Give kudos to tab author, rate the tab!
1 2 3 4 5
comments
print report bad tab
guest
You may want to rate the tab now too:
select rating
Wanna post a correction for this tab? Suggest correction