Oops, an error
Loading. Please wait.

Zygote - Biz Tab

version 1
version 1

Whole song

76 views 3 this week
no commentswrite comment
1 2 3 4 5
please rate
add to favorites
launch autoscroll
font size
0
reset
how to read this tab
guitar tuner
Autoscroll
slow
fast
+/-
esc
set tempo
stop
Help us to improve Ultimate-Guitar.com Take our survey!
×
Author
Difficulty
intermediate
Intro / Verses:

e|--------------------------------------------------------|
B|--------------------------------------------------------|
G|---13slide12slide13------9--13slide12slide13---------9--|
D|---12slide11slide12-7789----12slide11slide12-7789-------|
A|---11slide10slide11-----7---11slide10slide11-----7-10---|
E|-0-------------------------0----------------------------|

Chorus:

I can see your face, but I know your there, singing in my kitchen,

E+             A+                    E+                   A+

babe I said is it fair. You don't see what I see, but I feel your stare,

G+                E+                       A+                     G+

but I feel your stare............ Next to me!

                D+                (No Strumming)

Solo 1:

e|-----------------------------------------------------------------------------|
B|-10-10-11-12-12-------------------------10-10-11-12-12--------------------8--|
G|--------------------8-12-12-12-12----8--------------------8-12-12-12-12------|
D|-----------------12---------------12-------------------12---------------12---|
A|-----------------------------------------------------------------------------|
E|-----------------------------------------------------------------------------|

Solo 2: Coming Soon

e|---------------------------------------------------------------------------|
B|---------------------------------------------------------------------------|
G|---------------------------------------------------------------------------|
D|---------------------------------------------------------------------------|
A|---------------------------------------------------------------------------|
E|---------------------------------------------------------------------------|


Solo 3:

e|-7-----------------7--------------5-5---5--5--|
B|---7------------------7-----------------------|
G|--7--9-7---7-9-9-9--7---9-7--4-6--------------|
D|---------9----------------------------7-------|
A|----------------------------------------------|
E|----------------------------------------------|
Suggest correction
Give kudos to tab author, rate the tab!
1 2 3 4 5
comments
print report bad tab
guest
You may want to rate the tab now too:
select rating
Wanna post a correction for this tab? Suggest correction