Oops, an error
Loading. Please wait.

Zygote - Biz Tab

version 2
version 2

Whole song

67 views 1 this week
no commentswrite comment
1 2 3 4 5
please rate
add to favorites
launch autoscroll
font size
0
reset
how to read this tab
guitar tuner
Autoscroll
slow
fast
+/-
esc
set tempo
stop
Help us to improve Ultimate-Guitar.com Take our survey!
×
Author
Difficulty
intermediate
-------------------------------------------------------------------------------
                             BIZ - Zygote
-------------------------------------------------------------------------------
Tabbed by: Ryan Trinh
Email: kutanmoogle@hotmail.com

Intro/Verse:
e|---------------------------------------------------------------------------|
B|---------------------------------------------------------------------------|
G|---7\6/7--------------------7\6/7------------------------------------------|
D|---6\5/6----------x-2-x-x---6\5/6--------------2tr0------------------------|
A|---7\6/7----------x---x-x---7\6/7------------------------------------------|
E|0--------5-6-7\-0-x---x-x---------5-6-7\-0-3b4-----------------------------|

Chorus: (All strumming is done sparsely, so figure out the rhythms on your own)

 I can’t see your face, but I know you’re there, sitting in my kitchen
e|0---------------0--------------------------0----------------------0--------|
B|0---------------2--------------------------0----------------------2--------|
G|1---------------2--------------------------1----------------------2--------|
D|2---------------2--------------------------2----------------------2--------|
A|2---------------0--------------------------2----------------------0--------|
E|0------------------------------------------0-------------------------------|
  E               A                          E                      A

 Babe I say it isn’t fair, you don’t see what I see, but I feel your stare
e|---------------------0-------------------------0----------------------3----|
B|---------------------0-------------------------2----------------------3----|
G|---------------------1-------------------------2----------------------2----|
D|---------------------2-------------------------2----------------------5----|
A|-4-5-6-7-------------2-------------------------0----------------------5----|
E|------------0-0-0-0--0------------------------------------------------3----|
                       E                         A                      G

  But I feel your stare,           Just for me!
e|---------------------5-----------------------------------------------------|
B|---------------------7-----------------------------------------------------|
G|---------------------7-----------------------------------------------------|
D|---------------------7-----------------------------------------------------|
A|---------------------5-----------------------------------------------------|
E|---------------------------------------------------------------------------|
                       D           N.C.

First bridge:
e|---------------------------------------------------------------------------|
B|---------------------------------------------------12~12~12~12~------------|
G|14b16(bend this gradually while picking)-----------12~12~12~12~------------|
D|--------------------------------------------12-14---------------12-14------|
A|---------------------------------------------------------------------------|
E|---------------------------------------------------------------------------|

Second bridge:
e|---------------------------------------------------------------------------|
B|---------------------------------------------------------------------------|
G|---------------------------------------------------------------------------|
D|----------9p7------10--10---10-10------------9p7-----10-9------------------|
A|-----7-9------9p7--10--10---10-10--------7-9-----9p7-10-9------------------|
E|-7-10--------------8---8----8--8----7-10-------------8--7------------------|

    Why can’t   we be   more  like you?
e|---------------------------------------------------------------------------|
B|---8--8-------8--8----8--8-------------------------------------------------|
G|---7--7-------7--7----7--7-------------------------------------------------|
D|---6--6-------6--6----6--6-------------------------------------------------|
A|---7--7-------7--7----7--7-------------------------------------------------|
E|---------------------------------------------------------------------------|

Breakdown:
e|---------------------------------------------------------------------------|
B|-------------------------------------8-8-8-8-------------------------------|
G|--------------7/9-9------------------7-7-7-7-------------------------------|
D|--9-----------7/9-9---9--------------6-6-6-6-------------------------------|
A|----7-9-5-7---5/7-7-----7-9-5-7------7-7-7-7-------------------------------|
E|---------------------------------------------------------------------------|


| /  slide up
| \  slide down
| h  hammer-on
| p  pull-off
| ~  vibrato
| +  harmonic
| x  Mute note
| b  Bend note to fret indicated
| tr Trill
===============================================================================
Suggest correction
Give kudos to tab author, rate the tab!
1 2 3 4 5
comments
print report bad tab
guest
You may want to rate the tab now too:
select rating
Please do not post tabs as comments. Select "correction" instead!