Oops, an error
Loading. Please wait.

Zygote - Static Tab

45 views 1 this week
no commentswrite comment
1 2 3 4 5
3 more votes to show rating
add to favorites
launch autoscroll
font size
0
reset
how to read this tab
guitar tuner
Autoscroll
slow
fast
+/-
esc
set tempo
stop
Help us to improve Ultimate-Guitar.com Take our survey!
×
VERSES:
---0------------------------|
---0--0h3p0---------------7-|
---1--------3p0----3p0------|
-2--------------------------|
-2----------------------/5--|
-0--------------3-----------|

---0------------------------|
---0--3b-0--------------5---|
---1--------3p0----3p0------|
-2--------------------------|
-2----------------------/3--|
-0--------------3-----------|

CHORUS:
-xx---------------------8--3-7--|
-xx-9-8-9---------------8--3-7--|
-xx-------7-9----9-8-7--9--4-8--|
-xx---------------------10-5-9--|
-xx-------------5-------10-5-9--|
-xx-----------8---------8--3-7--|

BRIDGE:
--xx-7-7-7-5-5--xxxxxx--7-7-7-x-------------|
--xx-8-7-8-5-5--xxxxxx--8-7-8-x-------------|
--xx-7-7-7-6-6--xxxxxx--7-7-7-x-------------|
--xx-9-7-9-7-7--xxxxxx--9-7-9---------12----|
--xx-7-7-7-7-7--xxxxxx--7-7-7---10-10-10-9--|
--xx-------5-5--xxxxxx----------8--8-----7--|

-----------------------------|
-----------------------------|
-----------------------------|
--10-10-9-10...--9-9-8-9...--|
--10-10-9-10...--9-9-8-9...--|
--8--8--7-8-...--7-7-6-7...--|
Suggest correction
Give kudos to tab author, rate the tab!
1 2 3 4 5
comments
print report bad tab
guest
You may want to rate the tab now too:
select rating
Wanna post a correction for this tab? Suggest correction