Oops, an error
Loading. Please wait.

Zygote - Sting Acoustic Chords

172 views 1 this week
no commentswrite comment
1 2 3 4 5
3 more votes to show rating
add to favorites
launch autoscroll
font size
0
reset
transpose
0
reset
display chords
guitar tuner
Autoscroll
slow
fast
+/-
esc
set tempo
stop
Help us to improve Ultimate-Guitar.com Take our survey!
×
Author
Difficulty
novice
Listen to the song for strumming patterns.
Please email me if you have the solo tabbed out...t_lane_is_fukin_awesome@hotmail.com


Intro/Verse

--------------------|
-----------7----5---|
------5----7----5---|
------5----5----3---|
--1/3-3-------------|
--------------------|


Bridge before chorus

--9--------------|
--10----7----5---|
--11----7----5---|
--------5----3---|
-----------------|
-----------------|


Chorus

------------------------|
------------------------|
------5--------7----5---|
------5--------7----5---|
--3-3-3----5-5-5----3---|
------------------------|
Suggest correction
Give kudos to tab author, rate the tab!
1 2 3 4 5
comments
print report bad tab
guest
You may want to rate the tab now too:
select rating
Wanna post a correction for this tab? Suggest correction