Oops, an error
Loading. Please wait.

Zygote - Two Tales Tab

157 views 3 this week
no commentswrite comment
1 2 3 4 5
please rate
add to favorites
launch autoscroll
font size
0
reset
how to read this tab
guitar tuner
Autoscroll
slow
fast
+/-
esc
set tempo
stop
Help us to improve Ultimate-Guitar.com Take our survey!
×
Author/Artist: Zygote
Title: Two Tales
Album: Turning Gyge's Ring
Transcribed by: Isaac Apter

-------5-5---------------------8--6--|
-------5-5-xx-----5-3h5p3------8--6--|
-------5-5-xx-----5---------5--9--7--|
-------5-5-xx-----5-------4-4--8--6--|
-----------xx-3-3-3-------5-5--10-8--|
--/5-5-------------------------8--6--|


-------5-----------------------1--1-3-5-8---|
-------5-----------------------1--1-3-5-8---|
--2-2--2-------------0---------2--2-4-6-9---|
--2-2--2-------------0---------3--3-5-7-10--|
--0-0--0-----3h5p3-2-2---------3--3-5-7-10--|
---------3-5---------3-3-2-1-1-1--1-3-5-8---|
|-2nd Time-|

--------------------------------8-------------|
--------------------------------8-------------|
--------------------------------9-------------|
---------------------------7-7--10-----12-----|
----7-10-7-------------xx--6-6--10-/14----14--|
--0--------0--3-x5-x7--xx--7-7--8-------------|


------------------------------------8-------------|
------------------------------------8-------------|
------------------------------------9-------------|
----------5-6-------------------7-7-10-----12-----|
----7-5-7-------------------xx--6-6-10-/14----14--|
--0-----------5-7-3--x5-x7--xx--7-7-8-------------|
Suggest correction new What's this?
You can suggest a correction to this tab. Community and Mods will review your correction and vote to approve or reject it.
comments
We did not receive enough feedback on this tab! Please rate:
print report bad tab
1 2 3 4 5
guest
You may want to rate the tab now too:
select rating
Please do not post tabs as comments. Select "correction" instead!