Oops, an error
Loading. Please wait.

Chris Benoit Theme Tab

version 2
version 2

Whole song

5,166 views 12 this week
2 commentsread comments
1 2 3 4 5
x 5
add to favorites
launch autoscroll
font size
0
reset
how to read this tab
guitar tuner
Autoscroll
slow
fast
+/-
esc
set tempo
stop
Help us to improve Ultimate-Guitar.com Take our survey!
×
Author
Difficulty
novice
I think this is the right version.

Intro:
e|---------------------------------|
B|---------------------------------|
G|---------4-----------4-----------|
D|-2-2-2-2-4---2-2-2-2-4-----------|
A|-2-2-2-2-2---2-2-2-2-2-----------| 2x
E|-0-0-0-0-----0-0-0-0-------------| 

e|---------------------------------|
B|---------------------------------|
G|---------4-----------4---------4-|
D|-2-2-2-2-4---2-2-2-2-4---------4-|
A|-2-2-2-2-2---2-2-2-2-2---------2-| 1x
E|-0-0-0-0-----0-0-0-0-------------|

e|---------------------------------|
B|---------------------------------|
G|---------4-----------4---4-8-4---|
D|-2-2-2-2-4---2-2-2-2-4---4-8-4---|
A|-2-2-2-2-2---2-2-2-2-2---2-6-2---| 1x
E|-0-0-0-0-----0-0-0-0-------------|

e|---------------------------------|
B|---------------------------------|
G|---------4-----------4---------4-|
D|-2-2-2-2-4---2-2-2-2-4---------4-|
A|-2-2-2-2-2---2-2-2-2-2---------2-| 1x
E|-0-0-0-0-----0-0-0-0-------------|

e|---------------------------------|
B|---------------------------------|
G|---------4-----------4-----------|
D|-2-2-2-2-4---2-2-2-2-4-----------|
A|-2-2-2-2-2---2-2-2-2-2-----------| 1x
E|-0-0-0-0-----0-0-0-0-------------|

e|---------------------------------|
B|---------------------------------|
G|---------4-----------4-----------|
D|-2-2-2-2-4---2-2-2-2-4-----------|
A|-2-2-2-2-2---2-2-2-2-2-----------| 2x
E|-0-0-0-0-----0-0-0-0-------------|

After that the verse beginns. 
The beginning is without the guitar.
Listen to the music to know when you have to play this riff or not:

e|---------------------------------|
B|---------------------------------|
G|---------4-----------4-----------|
D|-2-2-2-2-4---2-2-2-2-4-----------|
A|-2-2-2-2-2---2-2-2-2-2-----------|
E|-0-0-0-0-----0-0-0-0-------------|
Suggest correction
comments
print report bad tab
2 comments total.
0 reply
lionhart281 10 May 28, 2007 09:50 PM

kk im glad you tabbed this ;) umm its actually in drop D. The main riff is pretty simple, but it goes like this.
* *
D]-0000--6----0000--6------------------------
A]-0000--6----0000--6------------------------
D]-0000--6----0000--6------------------------

* = Natural Harmonic

Its played with some big distortion, which brings out the harmonic in the weak spot that doesnt produce as strong of harmonic. So I mean since thats pretty much the whole song, i had to rate it low. sry. but hey good try ;)

0 reply
trivium036 40 Aug 15, 2007 05:43 PM

i dont really no the tuning but id say instead of the
|4
|4
|2
power chord that it is a harmonic on the 3rd fret E string

guest
You may want to rate the tab now too:
select rating
Wanna post a correction for this tab? Suggest correction