Oops, an error
Loading. Please wait.

Chris Jericho Theme Tab

5,938 views 6 this week
2 commentsread comments
1 2 3 4 5
accurate
x 3
add to favorites
launch autoscroll
font size
0
reset
how to read this tab
guitar tuner
Autoscroll
slow
fast
+/-
esc
set tempo
stop
Help us to improve Ultimate-Guitar.com Take our survey!
×
Contributor
Difficulty
henke85 61
novice
-------------------------------------------------------------------------------
			     Chris Jericho's Theme - WCW
-------------------------------------------------------------------------------
Tabbed by: Henke
Email: henrik.jonsson@jvbit.se

Tuning: Standard

This is the old WCW theme of Chris Jericho. It's a great instrumental song with a nice 
to it.
Don't hesitate to mail me if you want it, and I'll be glad to send it to you! :)

Synth riff throughout the song:

e|---3------3--------|
B|------0-1----0-1---|
G|-------------------|
D|-------------------|
A|-------------------|
E|-------------------|

Power chords (play according to the song and let them ring)

e|----------------------------------------------------------------------|
B|----------------------------------------------------------------------|
G|----------------------------------------------------------------------|
D|---5-----------2-------------------------2----------------------------|
A|---3-----------0-----------3-------3-----0--5-----55555555555555555---|
E|---------------------------1-------1--------3-----33333333333333333---|
                                                    xxxxxxxxxxxxxxxxx
e|---------------------------------------------------------------------------------------|
B|---------------------------------------------------------------------------------------|
G|---------------------------------------------------------------------------------------|
D|---5-------------------------------5------------------------------------2--------------|
A|---3---------------5---------------3-----------------5--------3----3----0--5--555555---|
E|-------------------3---------------------------------3--------1----1-------3--333333---|

e|-------------------------------------------------------------------|
B|-------------------------------------------------------------------|
G|-------------------------------------------------------------------|
D|---5-----------2-------------------------2-------------------------|
A|---3-----------0-----------3-------3-----0--5-----------2-3-2------|
E|---------------------------1-------1--------3------3--5--------3---|


e|--------------------------------------------------------------------------------|
B|--------------------------------------------------------------------------------|
G|--------------------------------------------------------------------------------|
D|-----------------2--------------2---4-5-----------------------------------------|
A|---3-------3-----0--5----5-5-5--0-5-2-3---------------------55555555555555555---|
E|---1-------1--------3----3-3-3----3-------------------------33333333333333333---|
                                                              xxxxxxxxxxxxxxxxx

					  Synth plays solo...

e|------------------------------------------------------------|
B|------------------------------------------------------------|
G|------------------------------------------------------------|
D|---5-----5555--2--2222------3------3---2--------------------|
A|---3-----3333--0--0000---3------3------0--5-----555555555---|
E|------------------------1--1---1--1-------3-----333333333---|

                          Play twice

e|-------|
B|-------|
G|-------|
D|---5---|
A|---3---|
E|-------|

   End!


| /  slide up
| \  slide down
| h  hammer-on
| p  pull-off
| ~  vibrato
| +  harmonic
| x  Mute note
===============================================================================
comments
We did not receive enough feedback on this tab! Please rate:
print report bad tab
1 2 3 4 5
2 comments total.
0 reply
x_Hezee_x 328 wrote on March 16 2011, 10:30 am

can you add lyrics to specific parts? D:

0 reply
Hammett93 83 wrote on September 7 2011, 09:28 am

it's an instrumental, there are no lyrics ;)

I want to post or [tab]
guest
You may want to rate the tab now too:
select rating
Please do not post tabs as comments. Select "correction" instead!