Oops, an error
Loading. Please wait.

Hulk Hogan Theme Tab

25,947 views 24 this week
2 commentsread comments
1 2 3 4 5
1 last vote to show rating
add to favorites
launch autoscroll
font size
0
reset
how to read this tab
guitar tuner
Autoscroll
slow
fast
+/-
esc
set tempo
stop
Help us to improve Ultimate-Guitar.com Take our survey!
×
Author/Artist: World Wrestling Federation
Title: Real American (Hulk Hogan)

The verse and melody part can be played on one guitar, but sounds best on two
(rhythm:melody,lead:verse)

  [Verse]
e|------------------------------------------------------------------------------|
B|-11--9--8--6--11-11-9-11--11-11-----11--9--8--6--11-11-9-8--------------------|
G|-10--8--7--5--10-10-8-10--10-10-----10--8--7--5--10-10-8-7--------------------|
D|-8---6--5--3--8--8--6-8---8--8------8---6--5--3--8--8--6-5--------------------|
A|------------------------------------------------------------------------------|
E|------------------------------------------------------------------------------|

  [Solo] (Played over Intro)
e|------------------------------------------------------------------------------|
B|-11--9--8--6--11-11-9-11--11--------------11-9--8--6--11-11-9-11--11----------|
G|-10--8--7--5--10-10-8-10--10--------------10-8--7--5--10-10-8-10--10----------|
D|-8---6--5--3--8--8--6-8---8---------------8--6--5--3--8--8--6-8---8-----------|
A|------------------------------------------------------------------------------|
E|------------------------------------------------------------------------------|

e|-12--15--17-17--17--15--15--12--15--17--20--17--17--15--12--12-12-12-12-12----|
B|------------------------------------------------------------------------------|
G|------------------------------------------------------------------------------|
D|------------------------------------------------------------------------------|
A|------------------------------------------------------------------------------|
E|------------------------------------------------------------------------------|

e|-12\10--8--5-------0--0h3h5-0h3h5-0h3h5--0-------------------------------------|
B|--------------------------------------------3-1--------------------------------|
G|------------------------------------------------2-------0--2--1--2-------------|
D|-----------------------------------------------------2-------------------------|
A|-------------------------------------------------------------------------------|
E|-------------------------------------------------------------------------------|
                  |------This part improvised-------|

 [Melody] (When it comes crashin down and it hurts inside...)
e|------------------------------------------------------------------------------|
B|------------------------------------------------------------------------------|
G|-0-0-4-5-4-7-9-7-10-9-9-7---------0-0-4-5-4-7-9-7-10-9-9-7--------------------|
D|------------------------------------------------------------------------------|
A|------------------------------------------------------------------------------|
E|------------------------------------------------------------------------------|

e|------------------------------------------------------------------------------|
B|-11-9-9-9-9-9-7-6-4-4-------6-9-9-6-9--4-4-4-4-6------------------------------|
G|------------------------------------------------------------------------------|
D|------------------------------------------------------------------------------|
A|------------------------------------------------------------------------------|
E|------------------------------------------------------------------------------|
 If you hurt my friends then you hurt my pride.....

e|------------------------------------------------------------------------------|
B|------------------------------------------------------------------------------|
G|-10-10-8-8-6--6--6-8--8----10-10-8-8-6--8--10-13--13--------------------------|
D|------------------------------------------------------------------------------|
A|------------------------------------------------------------------------------|
E|------------------------------------------------------------------------------|
 I got somethin deep inside of me, Courage is the thing that keeps us free...

e|------------------------------------------------------------------------------|
B|------------------------------------------------------------------------------|
G|-4-6-7--7--6--6--4-4------4-6-7--7--6--6--7--7--------------------------------|
D|------------------------------------------------------------------------------|
A|------------------------------------------------------------------------------|
E|------------------------------------------------------------------------------|
 I am a Real American   Fight for the rights of every man

e|------------------------------------------------------------------------------|
B|------------------------------------------------------------------------------|
G|-4-6-7--7--6-4-6-6-6-4----4-6-7--7----11--9--7--11----------------------------|
D|------------------------------------------------------------------------------|
A|------------------------------------------------------------------------------|
E|------------------------------------------------------------------------------|
 I am a Real American    Fight for what's right, Fight for your life

************************************

| h  Hammer-on
| \  Slide down

************************************
Suggest correction
Give kudos to tab author, rate the tab!
1 2 3 4 5
comments
print report bad tab
2 comments total.
0 reply
Pazza97 36 Mar 12, 2007 11:44 AM

OK

0 reply
theused101 41 Apr 04, 2008 01:19 AM

**** yeahhhhhhhhhhhhh

this is awesome.
u rock cuz u tabbed this.
everytime i hear it a tear comes.
now tab d generation x!!!!!
;)ha

guest
You may want to rate the tab now too:
select rating
Wanna post a correction for this tab? Suggest correction