Oops, an error
Loading. Please wait.

Rvd Theme Tab

version 1
version 1

Whole song

2,693 views 1 this week
2 commentsread comments
1 2 3 4 5
accurate
x 5
add to favorites
launch autoscroll
font size
0
reset
how to read this tab
guitar tuner
Tab Pro tools
  • play this tab
  • loop segment
  • change instrument
  • show fretboard
  • metronome
×
Best way to learn
"Rvd Theme"
Autoscroll
slow
fast
+/-
esc
set tempo
stop
Contributor
RVD Entrance Theme

Intro
     E5
4  |--2--|
5  |--2--|
6  |--0--|

Riff 1
     E5   G5  E5  G5   E5  G5   F#5
4  |--2----5---2---5----2---5----4----
5  |--2----5---2---5----2---5----4----
6  |--0----3---0---3----0---3----2----
pm…  ...      ...      ...

Riff 1 (Variation - Play every 4th time or so)
     E5   G5  E5  G5   F#5
4  |--2----5---2---5----4----
5  |--2----5---2---5----4----
6  |--0----3---0---3----2----
pm…  ...      ...

Riff 2
     E5   G5   A#5  G5   D5   G5   G#5  G5   F#5
4  |--2----5----8----5----7----5----6----5----4----
5  |--2----5----8----5----7----5----6----5----4----
6  |--0----3----6----3----5----3----4----3----2----
comments
print report bad tab
2 comments total.
0 reply
JoeterA wrote on January 24 2002, 12:00 am

On Riff 2 (Variation), you actually add that on the third time

0 reply
JoeterA wrote on January 24 2003, 12:00 am

On Riff 2:
Eliminate the 2nd, 3rd, and 4th G5 chord. Also in Riff 2, I mislabled the A5 chord as being D5.
It should go:
Riff 2
E G A# A G# G F#
4 |--2--5--8--7--6--5--4--|
5 |--2--5--8--7--6--5--4--|
6 |--0--3--6--5--4--3--2--|

-JoeterA 1-24-03

I want to post or [tab]
guest
You may want to rate the tab now too:
select rating
Please do not post tabs as comments. Select "correction" instead!