Oops, an error
Loading. Please wait.

Stone Cold Steve Austin Theme Tab

23,576 views 24 this week
2 commentsread comments
1 2 3 4 5
x 8
add to favorites
launch autoscroll
font size
0
reset
how to read this tab
guitar tuner
Autoscroll
slow
fast
+/-
esc
set tempo
stop
Help us to improve Ultimate-Guitar.com Take our survey!
×
Stone Cold Steve Austin - WWF themes Volume 3

   E5  F5  E5   
e-----------------I
B----------------0I
G-----------------I
D--2-2-3-3-2-2----I
A--2-2-3-3-2-2---0I
E--0-0-1-1-0-0----I

e|---13--|      E|---12-13-12---| Lead Guitar stuff.
B|---15b-|      B|---12-13-12---|
G|-------|      G|--------------|
D|-------|      D|--------------|
A|-------|      A|--------------|
E|-------|      E|--------------|


e|--------------------|
B|--------------------|
G|--------------------|
D|--2-2-3-3-2-2-3-3-5-|
A|--2-2-3-3-2-2-3-3-5-|
E|--0-0-1-1-0-0-1-1-3-|

e|-15----| Lead guitar plays with wah during riff above
B|-15----|
G|-------|
D|-------|
A|-------|
E|-------|

0-6-0-6-0-6-0-6-0-6-7-------I Gtr 2
---------------------------0I
----------------------------I
----------------------------I
---------------------------0I
-0-6-0-6-0-6-0-6-0-6-7------I Gtr 1

-0-6-0-6-0-6-0-6-0-8-7------I Gtr 2
----------------------------I
----------------------------I
----------------------------I
----------------------------I
-0-6-0-6-0-6-0-6-0-8-7------I Gtr 1

   + < o< +
-12-12-12-| play with wah over and over againChris Jurawan



************************************

| b  Bend

************************************
Suggest correction
comments
print report bad tab
2 comments total.
-1 reply
metal_shredder 30 Mar 19, 2007 11:05 PM

only 1 riff is ok...the rest sucks

+1 reply
Blighty 30 Apr 08, 2007 06:49 AM

it sounds better if you hit the top 4 strings in riff 1

guest
You may want to rate the tab now too:
select rating
Wanna post a correction for this tab? Suggest correction