Oops, an error
Loading. Please wait.

Alex Miller - Foolish Endeavor Tab

154 views 1 this week
no commentswrite comment
1 2 3 4 5
please rate
add to favorites
launch autoscroll
font size
0
reset
how to read this tab
guitar tuner
Autoscroll
slow
fast
+/-
esc
set tempo
stop
Help us to improve Ultimate-Guitar.com Take our survey!
×
Author
Floyd93 1,176
Foolish Endeavor - Alex Miller

Tabbed By: Alex Miller
Email Address: Ram13093@aol.com

Tuning: Standard EADGBe

Intro
e|---------------------------|--------------------|
B|---------------------------|--------------------|
G|---------------------------|--------------------|
D|-5h7-7-7--3h5-5-5----------|-55555555555555555--|
A|-5-5-5-5--3-3-3-3--3h5-5-5-|-55555555555555555--|
E|-------------------3-3-3-3-|-33333333333333333--|

Verse
e|------|---------------------------------------|
B|------|---------------------------------------|
G|------|---------------------------------------|
D|------|----------77777777-55555555------------|
A|------|-55555555-55555555-33333333-5555553h5--|
E|-12\3-|-33333333-------------------3333333-3--|

Pre-Chorus
e|----------------------------|--------------------------|
B|----------------------------|--------------------------|
G|----------------------------|--------------------------|
D|----------------------------|-5h7-7-5h7-7-5h7-7-5h7-7--|
A|-99999999-77777777-99999999-|-5-5-5-5-5-5-5-5-5-5-5-5--|
E|-77777777-55555555-77777777-|--------------------------|

e|----------------------------|----------7-7-7-7--------|
B|----------------------------|----------7-7-7-7--------|
G|----------------------------|----------9b9b9b9b9p7----|
D|----------------------------|----------------------9--|
A|-99999999-77777777-99999999-|-99-9999-----------------|
E|-77777777-55555555-77777777-|-77-7777-----------------|

e|-------------------------------------|
B|-------------------------------------|
G|-------------------------------------|
D|-9-------------9-9-9-----------------|
A|-9-------------9-9-9--------12\3-----|
E|-7-------------7-7-7-----------------|

Chorus
e----------------------------------------------------------|
B----------------------------------------------------------|
G----------------------------------------------------------|
D-5555555555555555-77775h75h75h75h7-5555555555555-44-44-4--|
A-3333333333333333-5555555555555555-3333333333333-22-22-2--|
E----------------------------------------------------------|

Interlude
e-------------------------------------------------------|
B-------------------------------------------------------|
G-------------5b----------3v----------------------------|
D-5h7-7-5h7-7----3h5-5-3-5------------------------------|
A-5-5-5----------3-3-3-------3h5-5-3-5-3-3-5-3-5-5b-5b--|
E----------------------------3-3-3----------------------|

Bridge(play palm-muted)
e|--------------------------------------|
B|--------------------------------------|
G|--------------------------------------|
D|----------77777777-55555555-----------|
A|-55555555-55555555-33333333-55555555--|
E|-33333333-------------------33333333--|

e|----------------------------------------------|
B|----------------------------------------------|
G|----------------------------------------------|
D|----------7-7--555555-------------------------|
A|-5-55-55--5-5--333333--555555555555555--12\3--|
E|-3-33-33---------------333333333333333--------|

Fill Before Last Chorus

Guitar One:
e|-7-7-7-7--------|
B|-7-7-7-7--------|
G|-9b9b9b9b9p7----|
D|-------------9--|
A|----------------|
E|----------------|

Guitar Two:
e|--------------------------------|
B|--------------------------------|
G|-------------------------12h14--|
D|-------------------12h14--------|
A|-------10h12-12h14--------------|
E|-10h12--------------------------|

Lead On Last Chorus
e|----------------------------------------|
B|----------------------------------------|
G|-12-14b14b-12-14p12----------12-14b-----| Play 3x
D|--------------------14p12-14------------|
A|----------------------------------------|
E|----------------------------------------|

End Riff
e|-------------------------------------|
B|-------------------------------------|
G|-------------------------------------| Play until song fades out
D|-5h7-7-7--3h5-5-5--------------------|
A|-5-5-5-5--3-3-3-3--3h5-5-5--3h5-5-5--|
E|-------------------3-3-3-3--3-3-3-3--|


End Solo(play over end riff)
e|-12---------------------------------------------------------------|
B|-12---------------------------------------------------------------|
G|-14b--------------5h7p5-----------5-7b--5-7v-5-7v-5h7-5h7-5h7-7b--|
D|--------------5h7-------7-5h7-5h7-----------------5h7-5h7-5h7-----|
A|------12\5--7-----------------------------------------------------|
E|------------------------------------------------------------------|

e|----------------------------------------------------8-5-8-5-8b----|
B|----------------5---5---5---5---------------------5------------5--|
G|---------5h7-7b---7---7---7---7b7b7b7b-----5h7-7b-----------------|
D|-----5h7-------------------------------5h7------------------------|
A|-5h7--------------------------------------------------------------|
E|------------------------------------------------------------------|

e|------------------------------------------------------------------|
B|------------------------------------------------------------------|
G|-----------7b-----------------------------------------------------|
D|-------5h7----7-5-7-5-7-5-7-5-7-5-7-5-7-5-7-5-7-5-7-5-7-5-7-7-7b--|
A|-5h7-7------------------------------------------------------------|
E|------------------------------------------------------------------|

e|------------------------------5-8-5-8-5-8-5-8b--------------------|
B|--------------------------5-8------------------8-5-5--------------|
G|-5-7-7b-5-7-7b-5-7-5-7-7b----------------------------7p5----------|
D|---------------------------------------------------------7-5------|
A|-------------------------------------------------------------7-7b-|
E|------------------------------------------------------------------|

e|------------------------------------------------------------------|
B|------------------------------------------------------------------|
G|-----5h7-----5h7-5h7-5h7-5h7p5------------------------------------|
D|-5h7-----5h7-------------------7-5b-7-5b-7-5b-5b-7b-5h7p5---------|
A|----------------------------------------------------------7-5-5b--|
E|------------------------------------------------------------------|

Song Segments:
Intro
Verse
Chorus
Intro
Verse
Chorus
Intro
Interlude
Bridge
Fill
Chorus
End Riff/End Solo

Symbols Used:
\ = slide down
h = hammer on
p = pull off
b = bend
v = vibrato
Suggest correction
What's this?
You can suggest a correction to this tab. Community and Mods will review your correction and vote to approve or reject it.
comments
We did not receive enough feedback on this tab! Please rate:
print report bad tab
1 2 3 4 5
guest
You may want to rate the tab now too:
select rating
Please do not post tabs as comments. Select "correction" instead!