Oops, an error
Loading. Please wait.

Alpha Tab

340 views 3 this week
3 commentsread comments
1 2 3 4 5
please rate
add to favorites
launch autoscroll
font size
0
reset
how to read this tab
guitar tuner
Autoscroll
slow
fast
+/-
esc
set tempo
stop
Help us to improve Ultimate-Guitar.com Take our survey!
×
Author
Intro

Eb :------------------------------------------------------------------------|
Bb :------------------------------------------------------------------------|
Gb :------------------------------------------------------------------------|
Db :---------3-2---2-----------3-2---2-----------3-2-----2---------3-2-2-5-4|
Ab :-----3-5-----3---------3-5-----3---------3-5-----3---------3-5-----3-7-5|
Eb :-2-5-------------3-2-5-------------3-2-5-----------3---2-5--------------|
Ab :------------------------------------------------------------------------|

Verse x2

Eb :--------------------------------------------------------------------------|
Bb :--------------------------------------------------------------------------|
Gb :--------------------------------------------------------------------------|
Db :-----------2-----9-----------2-----5-----------2-------------------4-5-2--|
Ab :-----2-----3-----7-----2-----3-----7-----2-----3-----<7>-----2-----5-7-3-2|
Eb :-0-0-0-0-0---0-0-0-0-0-0-0-0---0-0---0-0-0-0-0---0-0-----0-0-0-0-0-------0|
Ab :--------------------------------------------------------------------------|

Eb :--------------------------------------------------------------------------|
Bb :--------------------------------------------------------------------------|
Gb :-----------2-----9-----------2-----7-----------2-------------------4-5-2--|
Db :-----2-----3-----7-----2-----3-----5-----2-----3-----<7>-----2-----5-7-3-2|
Ab :-0-0-0-0-0---0-0-0-0-0-0-0-0---0-0---0-0-0-0-0---0-0-----0-0-0-0-0-------0|
Eb :--------------------------------------------------------------------------|
Ab :--------------------------------------------------------------------------|

Prechorus

Eb :------------------------------------------------------------------------|
Bb :------------------------------------------------------------------------|
Gb :------------------------------------------------------------------------|
Db :---------3-2---2-----------3-2---2-----------3-2-----2---------3-2-2-5-4|
Ab :-----3-5-----3---------3-5-----3---------3-5-----3---------3-5-----3-7-5|
Eb :-2-5-------------3-2-5-------------3-2-5-----------3---2-5--------------|
Ab :------------------------------------------------------------------------|

Verse x4

Eb :--------------------------------------------------------------------------|
Bb :--------------------------------------------------------------------------|
Gb :--------------------------------------------------------------------------|
Db :-----------2-----9-----------2-----5-----------2-------------------4-5-2--|
Ab :-----2-----3-----7-----2-----3-----7-----2-----3-----<7>-----2-----5-7-3-2|
Eb :-0-0-0-0-0---0-0-0-0-0-0-0-0---0-0---0-0-0-0-0---0-0-----0-0-0-0-0-------0|
Ab :--------------------------------------------------------------------------|

Eb :--------------------------------------------------------------------------|
Bb :--------------------------------------------------------------------------|
Gb :-----------2-----9-----------2-----7-----------2-------------------4-5-2--|
Db :-----2-----3-----7-----2-----3-----5-----2-----3-----<7>-----2-----5-7-3-2|
Ab :-0-0-0-0-0---0-0-0-0-0-0-0-0---0-0---0-0-0-0-0---0-0-----0-0-0-0-0-------0|
Eb :--------------------------------------------------------------------------|
Ab :--------------------------------------------------------------------------|

Prechorus

Eb :------------------------------------------------------------------------|
Bb :------------------------------------------------------------------------|
Gb :------------------------------------------------------------------------|
Db :---------3-2---2-----------3-2---2-----------3-2-----2---------3-2-2-5-4|
Ab :-----3-5-----3---------3-5-----3---------3-5-----3---------3-5-----3-7-5|
Eb :-2-5-------------3-2-5-------------3-2-5-----------3---2-5--------------|
Ab :------------------------------------------------------------------------|


Chorus x4

Eb :-------------------------------------|
Bb :-------------------------------------|
Gb :-------------------------------------|
Db :3 /5-5-5-5-5-5-5-5-5-/7-7-7-7-7-7-7-7|
Ab :3--3-3-3-3-3-3-3-3-5--5-5-5-5-5-5-5-5|
Eb :3--3-3-3-3-3-3-3-3-5--5-5-5-5-5-5-5-5|
Ab :3--3-3-3-3-3-3-3-3-5--5-5-5-5-5-5-5-5|

Bridge A

Eb :---------------------------------------------------------------------------------------|
Bb :---------------------------------------------------------------------------------------|
Gb :---------------------------------------------------------------------------------------|
Db :-------------------------------------------3-3-3-3-3-3-3-3-3-5-5-5-5-5-5-5-5-5---------|
Ab :-------------------------------------------3-3-3-3-3-3-3-3-3-5-5-5-5-5-5-5-5-5-5h8/3-p0|
Eb :------<3>------<3><5>------<3>------<3><5>-3-3-3-3-3-3-3-3-3-5-5-5-5-5-5-5-5-5-5h8/3-p0|
Ab :3-3-3----3-3-3-------3-3-3----3-3-3--------3-3-3-3-3-3-3-3-3-5-5-5-5-5-5-5-5-5-5h8/3-p0|

Bridge B

Eb :-------------------------------------|
Bb :-------------------------------------|
Gb :-------------------------------------|
Db :3 /5-5-5-5-5-5-5-5-5-/7-7-7-7-7-7-7-7|
Ab :3--3-3-3-3-3-3-3-3-5--5-5-5-5-5-5-5-5|
Eb :3--3-3-3-3-3-3-3-3-5--5-5-5-5-5-5-5-5|
Ab :3--3-3-3-3-3-3-3-3-5--5-5-5-5-5-5-5-5|

Solo Section

Eb :------------------------------------------------------------------------------8-h12----8-h12---
Bb :------------------------------------------------------------------------9-/12-------11-------11
Gb :----------------------------------------------------------------------8------------------------
Db :-3-/5-----------------3-/5-----------------3-/5---------------3-/5-/7--------------------------
Ab :-3--3-----------------3--3-----------------3-/5-------------3----------------------------------
Eb :-3--3-----------------3--3-----------------3-/5-----------3------------------------------------
Ab :-3--3-0-0-0-0-0-0-0-0-3--3-0-0-0-0-0-0-0-0-3-/5-0-0-0-0-3--------------------------------------

Eb :-8-h12-/15-------------------------------------------------------------------------------------
Bb :-----------17-p15-\12-12-h13-t17-12-h13-t17-p12-h13-t17-p12-h13-t17-p12-h13-t17-p12-h13-t17-p12
Gb :-----------------------------------------------------------------------------------------------
Db :-----------------------------------------------------------------------------------------------
Ab :-----------------------------------------------------------------------------------------------
Eb :-----------------------------------------------------------------------------------------------
Ab :-----------------------------------------------------------------------------------------------

Eb :--------------------12-h15-t18-p12-h15-t18-p12-h15-t18-p12-h15-t18-p18-19^21^|
Bb :h13-t17-p12-h13-t17----------------------------------------------------------|
Gb :-----------------------------------------------------------------------------|
Db :-----------------------------------------------------------------------------|
Ab :-----------------------------------------------------------------------------|
Eb :-----------------------------------------------------------------------------|
Ab :-----------------------------------------------------------------------------|


Verse x2

Eb :--------------------------------------------------------------------------|
Bb :--------------------------------------------------------------------------|
Gb :--------------------------------------------------------------------------|
Db :-----------2-----9-----------2-----5-----------2-------------------4-5-2--|
Ab :-----2-----3-----7-----2-----3-----7-----2-----3-----<7>-----2-----5-7-3-2|
Eb :-0-0-0-0-0---0-0-0-0-0-0-0-0---0-0---0-0-0-0-0---0-0-----0-0-0-0-0-------0|
Ab :--------------------------------------------------------------------------|

Eb :--------------------------------------------------------------------------|
Bb :--------------------------------------------------------------------------|
Gb :-----------2-----9-----------2-----7-----------2-------------------4-5-2--|
Db :-----2-----3-----7-----2-----3-----5-----2-----3-----<7>-----2-----5-7-3-2|
Ab :-0-0-0-0-0---0-0-0-0-0-0-0-0---0-0---0-0-0-0-0---0-0-----0-0-0-0-0-------0|
Eb :--------------------------------------------------------------------------|
Ab :--------------------------------------------------------------------------|

Prechorus

Eb :------------------------------------------------------------------------|
Bb :------------------------------------------------------------------------|
Gb :------------------------------------------------------------------------|
Db :---------3-2---2-----------3-2---2-----------3-2-----2---------3-2-2-5-4|
Ab :-----3-5-----3---------3-5-----3---------3-5-----3---------3-5-----3-7-5|
Eb :-2-5-------------3-2-5-------------3-2-5-----------3---2-5--------------|
Ab :------------------------------------------------------------------------|


Chorus x4

Eb :-------------------------------------|
Bb :-------------------------------------|
Gb :-------------------------------------|
Db :3 /5-5-5-5-5-5-5-5-5-/7-7-7-7-7-7-7-7|
Ab :3--3-3-3-3-3-3-3-3-5--5-5-5-5-5-5-5-5|
Eb :3--3-3-3-3-3-3-3-3-5--5-5-5-5-5-5-5-5|
Ab :3--3-3-3-3-3-3-3-3-5--5-5-5-5-5-5-5-5|
Suggest correction
Give kudos to tab author, rate the tab!
1 2 3 4 5
comments
print report bad tab
3 comments total.
0 reply
samlynch 130 wrote on July 11 2005, 12:00 am

u no wat. thats gr8

0 reply
dane619 159 wrote on April 29 2007, 12:43 am

is that real song ?

0 reply
dane619 159 wrote on April 29 2007, 12:47 am

?

guest
You may want to rate the tab now too:
select rating
Wanna post a correction for this tab? Suggest correction