Oops, an error
Loading. Please wait.

Annie G - Dismal Lament tab

version 1
version 1

Whole song

Interactive

52 views 1 this week
no commentswrite comment
1 2 3 4 5
3 more votes to show rating
add to favorites
×
Save as Personal and add changes to this tab that will be seen only by you. Learn more ›
×
You can save this tab as Personal to edit and correct it or add notes. All changes will be seen only by you. Learn more »
launch autoscroll
font size
0
reset
how to read this tab
guitar tuner
edit
Autoscroll
slow
fast
+/-
esc
set tempo
stop
Author
Unregistered
                                  * * * * * * * * *
                                  * DISMAL LAMENT *
                                  * * * * * * * * *



Guitar I (Lead)
                                               Rit.    Fermata  
     E  E  E  E  E  E  E  E     E  E  E  E  E  E    E  E        
E||--------------------------|---------------------------------|
B||--------------3--1--------|---------------------------------|
G||--0--3--2--0--------3--2--|--0--3--2--0---------------------|
D||--------------------------|--------------4------------------|
A||--------------------------|-----------------6----4--5-------|
E||--------------------------|---------------------------------|


  E  E  E  E  E  E  E  E     E  E  E  E  H           E  E  E  E  E  E  E  E   
--------------------------|-----------------------|--------------------------|
--------------3-----4--1--|--3--1-----------------|--------------3--1--------|
--0--3--2--0-----0--------|--------3--2--0--------|--0--3--2--0--------3--2--|
--------------------------|-----------------------|--------------------------|
--------------------------|-----------------------|--------------------------|
--------------------------|-----------------------|--------------------------|


  E  E  E  E  E  E  E  E     E  E  E  E  E  E  E  E     E  E  E  E  H         
--------------------------|--------------------------|-----------------------|
--------------------------|--------------3-----4--1--|--3--1-----------------|
--0--3--2--0--------------|--0--3--2--0-----0--------|--------3--2--0--------|
--------------4-----------|--------------------------|-----------------------|
-----------------6--4--5--|--------------------------|-----------------------|
--------------------------|--------------------------|-----------------------|


  E  E  E  E  E  E  E  E     E  E  E  E  Q.     E     E  E  E  E  E  E  Q     
--------------------------|------------------------|-------------------------|
-----------------1--------|-----3--1------------4--|--3-----4-----3--1--3----|
--0--3--2--0--2-----3--2--|--3--------3--2---------|-----0-----0-------------|
--------------------------|------------------------|-------------------------|
--------------------------|------------------------|-------------------------|
--------------------------|------------------------|-------------------------|


  E  E  E  E  E  E     H        E  E     E  E  E  E  E  E  E  E  E  E   
-----------------3--|--2--------3--2--|--------------------------------|
--3--1--3--2--3-----|-----------------|-----4-----3-----2--------------|
--------------------|-----------------|--------------------------0--2--|
--------------------|-----------------|--5-----4-----3-----5--4--------|
--------------------|-----------------|--------------------------------|
--------------------|-----------------|--------------------------------|


  W                   E  E  E  E  H           E  E  E  E  H         
-------------------|-----------------------|-----------------------|
-------------------|--4--3--1--------------|--3--1-----------------|
--3----------------|-----------3--2--------|--------3--2--0--------|
--5----------------|-----------------------|-----------------------|
-------------------|-----------------------|-----------------------|
-------------------|-----------------------|-----------------------|


                                      Fermata                               
  E  E  E  E  E  E  E  E     H        Q.      E     E  E  E  E  E  E  Q     
--------------------------|----------------------|-------------------------|
--1-----------------------|-----------3-------4--|--3-----4-----3--1--3----|
-----3--2--0--2--0--2--3--|--2-------------------|-----0-----0-------------|
--------------------------|----------------------|-------------------------|
--------------------------|----------------------|-------------------------|
--------------------------|----------------------|-------------------------|


  E  E  E  E  E  E  E  E     E  E  E  E  E  E  E  E     E  E  E  E  H         
-----------------3--2-----|--------------------------|-----------------------|
--3--1--3--2--3--------4--|--3-----4-----3--1--3-----|-----------------------|
--------------------------|-----0-----0-----------0--|--7--5--8--6--7--------|
--------------------------|--------------------------|--7-----8-----7--------|
--------------------------|--------------------------|--5-----6-----5--------|
--------------------------|--------------------------|-----------------------|


  Q.     E  Q.     E     Q.     E  E  E  E  E     Q.     E  Q.     E   
---------3--2------5--|--3------6--5--3--------|----------------------|
--3-------------------|--3------------------3--|--3------1------------|
--3---------2---------|--3---------------6-----|--3---------2------3--|
----------------------|------------------------|------------4---------|
----------------------|------------------------|----------------------|
----------------------|------------------------|----------------------|


                                |-3-|                                     
  Q    E  E  H           Q.     S S S Q.     S S    Q.     E  Q     Q     
----------2--3--------|---------2-3---2------5-2-|--3------6--5----10----|
--3----3-----3--------|--3----------4------------|--3--------------10----|
--3----------3--------|--3------------2----------|--3--------------11----|
----------------------|--------------------------|-----------------------|
----------------------|--------------------------|-----------------------|
----------------------|--------------------------|-----------------------|


                                           Fermata                    
  Q.     E  Q    E  E     E  E  E  E  Q    Q          Q    Q    Q     
-----------------------|---------------------------|-----------------|
--3------4--1----1-----|--------------3------------|------------3----|
--3---------2-------2--|--3-----2-----3------------|-------3---------|
-----------------------|-----0-----4--5------------|--5--------------|
-----------------------|---------------------------|--5--------------|
-----------------------|-------------------3-------|-----------------|


  Q    Q    Q       Q    Q    Q       Q    Q    Q       Q    Q    Q     
-----------------|-----------------|-----------------|-----------------|
-----------------|------------3----|-----------------|------------3----|
-------8----7----|-------3---------|-------8----7----|-------3---------|
--7--------------|--5--------------|--7--------------|--5--------------|
--6--------------|--5--------------|--6--------------|--5--------------|
-----------------|-----------------|-----------------|-----------------|


  Q    Q    Q       Q    Q    Q       Q    Q    Q       Q    Q    Q     
-----------------|-----------------|--2--------------|-----------------|
------------2----|------------1----|-------1---------|------------3----|
-------3---------|-------2---------|--2---------2----|-------3---------|
--5--------------|--4--------------|-----------------|--5--------------|
--4--------------|--3--------------|-----------------|--5--------------|
-----------------|-----------------|-----------------|-----------------|


  Q    Q    Q       Q    Q    Q       Q    Q    Q       Q    Q    Q     
-----------------|-----------------|-----------------|-----------------|
-----------------|------------3----|-----------------|-------8----7----|
-------8----7----|-------3---------|-------8----7----|-----------------|
--7--------------|--5--------------|--7--------------|--8--------------|
--6--------------|--5--------------|--6--------------|--7--------------|
-----------------|-----------------|-----------------|-----------------|


  Q    Q    Q       Q    Q    Q       Q    Q    Q       Q    Q    Q     
-----------------|-----------------|-----------------|-----------------|
-----------------|------------2----|------------2----|------------1----|
-------8----7----|-------3---------|-------3---------|-------2---------|
--7--------------|--5--------------|--5--------------|--4--------------|
--6--------------|--4--------------|--4--------------|--3--------------|
-----------------|-----------------|-----------------|-----------------|


  Q    Q    Q       Q    Q    Q       Q    Q    Q       Q    Q    Q     
-----------------|-----------------|-----------------|-----------------|
-------1---------|------------3----|-----------------|------------3----|
------------2----|-------3---------|-------8----7----|-------3---------|
--4--------------|--5--------------|--7--------------|--5--------------|
--3--------------|--5--------------|--6--------------|--5--------------|
-----------------|-----------------|-----------------|-----------------|


  Q    Q    Q       Q    Q    Q    Q       Q    Q    Q    Q     
-----------------|----------------------|----------------------|
-----------------|----------------------|----------------------|
-------8----7----|--0----3----2----0----|-------5----3----2----|
--7--------------|----------------------|--4-------------------|
--6--------------|----------------------|----------------------|
-----------------|----------------------|----------------------|


  W                   W                  
-------------------|-------------------||
-------------------|-------------------||
--3----------------|--L----------------||
--5----------------|--L----------------||
-------------------|-------------------||
-------------------|-------------------||










Guitar II (Rhythm)
     W                   W                   W                 
E||-------------------|-------------------|-------------------|
B||-------------------|-------------------|-------------------|
G||-------------------|-------------------|-------------------|
D||-------------------|-------------------|-------------------|
A||-------------------|-------------------|-------------------|
E||-------------------|-------------------|-------------------|


            ^                                                      
  Q    Q    H           Q    Q    Q    Q       Q    Q    H         
---------------------|----------------------|---------------------|
------------3--------|----------------------|---------------------|
------------3--------|----------------------|---------------------|
------------5--------|----------------------|---------------------|
---------------------|--5---------5----6----|--5------------------|
---------------------|-------6--------------|-------6----5--------|


  Q    Q    Q    Q       Q    Q    H           Q    Q    Q    Q     
----------------------|---------------------|----------------------|
----------------------|---------------------|----------------------|
----------------------|---------------------|----------------------|
----------------------|--4----0----5--------|----------------------|
--5---------5----6----|--5----1----5--------|--5---------6---------|
-------6--------------|---------------------|-------6---------6----|


  Q    Q    E  E  E  E     Q    Q    Q    Q       Q    Q    Q     
------------------------|----------------------|-----------------|
------------------------|----------------------|-----------------|
------------------------|----------------------|-----------------|
--3----4----------------|----------------------|-----------------|
------------3--1--0-----|----------------------|-----------------|
---------------------2--|--3----6----5----3----|--5----3----2----|


  H        Q       Q    Q    Q    Q    Q       E  E  E  E  H         
----------------|---------------------------|-----------------------|
----------------|---------------------------|-----------------------|
----------------|---------------------------|-----------------------|
----------------|---------------------------|-----------------------|
-----------6----|--6----5----4----5----5----|-----------4--5--------|
--5-------------|---------------------------|--3--5--6--------------|


  Q    Q    Q    Q       Q    Q    Q    Q       Q    Q    Q    Q     
----------------------|----------------------|----------------------|
----------------------|----------------------|----------------------|
----------------------|----------------------|----------------------|
----------------------|-------4--------------|--4----1----1----4----|
--3--------------3----|-------5---------5----|--3----3----3----3----|
-------6----5---------|--5---------6---------|----------------------|


  H        Q.     E     Q    Q    Q    Q       Q    Q    Q    E  E   
---------------------|----------------------|-----------------------|
---------------------|----------------------|-----------------------|
--2------------------|----------------------|-----------------2-----|
--4--------4------4--|--0----0----4----0----|--1----0----1-------4--|
--3--------5------3--|--1----1----3----1----|--3----1----3----3--0--|
---------------------|--3----3----5----3----|--5----3----5----------|


  Q    Q    Q    Q       Q    Q    E  E  E  E     E  E  E  E  E  E  E  E   
----------------------|------------------------|--------------------------|
----------------------|------------------------|--------------3--1--------|
----------------------|------------------------|--0--3--2--0--------3--2--|
--0----0----4----0----|--4----5----4-----------|--------------------------|
--1----1----3----1----|--5----6----5-----0--1--|--------------------------|
--3----3----5----3----|---------------3--------|--------------------------|


  E  E  E  E  E  E  E  E     E  E  E  E  E  E  E  E   
--------------------------|--------------------------|
--------------------------|--------------3-----4--1--|
--0--3--2--0--------------|--0--3--2--0-----0--------|
--------------4-----------|--------------------------|
-----------------6--4--5--|--------------------------|
--------------------------|--------------------------|


  E  E  E  E  E  E  E  E     E  E  E  E  E  E  E  E   
--------------------------|--------------------------|
--3-----------------------|--------------3--1--------|
-----5--3--2--0--2--3--2--|--0--3--2--0--------3--2--|
--------------------------|--------------------------|
--------------------------|--------------------------|
--------------------------|--------------------------|


                                                        ^    ^    ^         
  E  E  E  E  E  E  E  E     E  E  E  E  E  E  E  E     Q    Q    H         
--------------------------|--------------------------|------------3--------|
--------------------------|--------------3-----4--1--|--3---------3--------|
--0--3--2--0--------------|--0--3--2--0-----0--------|--3----5----3--------|
--------------4-----------|--------------------------|--5----7----5--------|
-----------------6--4--5--|--------------------------|-------5-------------|
--------------------------|--------------------------|---------------------|


  E  Q    Q    E     E  Q    Q    E     E  Q    Q    E     E  Q    Q    E   
------------------|------------------|------------------|------------------|
------------------|------------------|------------------|------------------|
------------------|------------------|------------------|------------------|
---------------5--|---------------7--|---------------5--|---------------7--|
--5--5----5-------|--6--6----6-------|--5--5----5-------|--6--6----6-------|
------------------|------------------|------------------|------------------|


  E  Q    Q    E     E  Q    Q    E     E  Q    Q    E     E  Q    Q    E   
------------------|------------------|------------------|------------------|
------------------|------------------|------------------|------------------|
------------------|------------------|------------------|------------------|
---------------5--|------------------|------------------|---------------4--|
--5--5----5-------|--4--4----4----4--|--3--3----3----3--|--3--3----3-------|
------------------|------------------|------------------|------------------|


  E  Q    Q    E     E  Q    Q    E     E  Q    Q    E     E  Q    Q    E   
------------------|------------------|------------------|------------------|
------------------|------------------|------------------|------------------|
------------------|------------------|------------------|------------------|
---------------5--|---------------7--|---------------5--|---------------7--|
--5--5----5-------|--6--6----6-------|--5--5----5-------|--6--6----6-------|
------------------|------------------|------------------|------------------|


  E  Q    Q    E     E  Q    Q    E     E  Q    Q    E     E  Q    Q    E   
------------------|------------------|------------------|------------------|
------------------|------------------|------------------|------------------|
------------------|------------------|------------------|------------------|
---------------8--|---------------7--|------------------|------------------|
--7--7----7-------|--6--6----6-------|--4--4----4----4--|--4--4----4----4--|
------------------|------------------|------------------|------------------|


  E  Q    Q    E     E  Q    Q    E     E  Q    Q    E     E  Q    Q    E   
------------------|------------------|------------------|------------------|
------------------|------------------|------------------|------------------|
------------------|------------------|------------------|------------------|
------------------|---------------4--|---------------5--|---------------7--|
--3--3----3----3--|--3--3----3-------|--5--5----5-------|--6--6----6-------|
------------------|------------------|------------------|------------------|


  E  Q    Q    E     E  Q    Q    E     E  Q    Q    Q    E   
------------------|------------------|-----------------------|
------------------|------------------|-----------------------|
------------------|------------------|-----------------------|
---------------5--|---------------7--|-----------------------|
--5--5----5-------|--6--6----6-------|--5--5----5----5----5--|
------------------|------------------|-----------------------|


  E  Q    Q    Q    E     W                   W                  
-----------------------|-------------------|-------------------||
-----------------------|-------------------|-------------------||
-----------------------|-------------------|-------------------||
--------------------4--|--0----------------|--L----------------||
--3--3----3----3-------|-------------------|-------------------||
-----------------------|--3----------------|--L----------------||




Duration Legend
---------------
W - whole
H - half
Q - quarter
E - 8th
S - 16th
T - 32nd
X - 64th
. - note dotted
|-n-|  - n-tuplets


Tablature Legend
----------------
L - tied note
x - dead note
g - grace note
(n) - ghost note
> - accentuded note
NH - natural harmonic
AH - artificial harmonic
TH - tapped harmonic
SH - semi harmonic
PH - pitch harmonic
h - hammer on
p - pull off
b - bend
br - bendRelease
pb - preBend
pbr - preBendRelease
brb - bendReleaseBend
\n/ - tremolo bar dip
\n - tremolo bar dive
-/n - tremolo bar Release up
/n\ - tremolo bar inverted dip
/n - tremolo bar return
-\n - tremolo bar Release down
S - shift slide
s - legato slide
/ -  slide into from below or out of upwards
\ -  slide into from above or out of downwards
~ - vibrato
W - wide vibrato
tr - trill
TP - tremolo picking
T - tapping
S - slap
P - pop
< - fade in
^ - brush up
v - brush down

            
            
Suggest correction
Creating personal tab
Creating personal tab
You can edit any tab online and save it as your Personal.

You can edit, replace or remove any tab part or add personal notes – all changes will be seen only by you.

Personal tabs can be accessed anytime from any device, even offline.
Learn more »
Give kudos to tab author, rate the tab!
1 2 3 4 5
comments
print report bad tab
guest
Wanna post a correction for this tab? Suggest correction