Oops, an error
Loading. Please wait.

Armstrong Jon - The Caroline Song Tab

294 views 1 this week
no commentswrite comment
1 2 3 4 5
please rate
add to favorites
launch autoscroll
font size
0
reset
how to read this tab
guitar tuner
Autoscroll
slow
fast
+/-
esc
set tempo
stop
Help us to improve Ultimate-Guitar.com Take our survey!
×
“The Caroline Song”
Written & Tabbed by Jon Armstrong

[Intro]
 -------------------------------------------------------------------------
 -------------------------------------------------------------------------
 -------------------------------------------------------------------------
 -----9-9-9-9---9-9-9-9---6-6-6-6---4-4-4-4------------------------------- (x2)
 -----9-9-9-9---7-7-7-7---6-6-6-6---4-4-4-4-------------------------------
 -----7-7-7-7---7-7-7-7---4-4-4-4---2-2-2-2-------------------------------


 -------------------------------------------------------------------------
 -------------------------------------------------------------------------
 -------------------------------------------------------------------------
 -----9-9-----9-9-----6-6-----4-4----------------------------------------- 
 -----9-9-----7-7-----6-6-----4-4-----------------------------------------
 -----7-7-----7-7-----4-4-----2-2-----------------------------------------


 -------------------------------------------------------------------------
 -------------------------------------------------------------------------
 -------------------------------------------------------------------------
 ------9-----9---9------9-----9---9-----9-----9--9-----9---------9-------- (x2)
 -------------------7-7---7-7---7---6-6---6-6--6---9-9---9---7-7--7-------
 --7-7---7-7---7----------------------------------------------------------


--------------------------------------------------------------------------
--------------------------------------------------------------------------  
------------------------------------9-9-9-9-9-9-9-9--11-11-11-11--9-9-9-9-
-9-9-9-9-9-9-9-9---9-9-9-9-9-9-9-9--9-9-9-9-9-9-9-9--11-11-11-11--9-9-9-9- (x2) 
-9-9-9-9-9-9-9-9---7-7-7-7-7-7-7-7--6-6-6-6-6-6-6-6--9--9--9--9---7-7-7-7-
-7-7-7-7-7-7-7-7---7-7-7-7-7-7-7-7----------------------------------------


[Chorus]
 -------------------------------------------------------------------------
 -------------------------------------------------------------------------
 -------------------------------------------------------------------------
 -----9-9-9-9---9-9-9-9---6-6-6-6---4-4-4-4------------------------------- (x2)
 -----9-9-9-9---7-7-7-7---6-6-6-6---4-4-4-4-------------------------------
 -----7-7-7-7---7-7-7-7---4-4-4-4---2-2-2-2-------------------------------


 -------------------------------------------------------------------------
 -------------------------------------------------------------------------
 -------------------------------------------------------------------------
 -----9-9-----9-9-----6-6-----4-4----------------------------------------- 
 -----9-9-----7-7-----6-6-----4-4-----------------------------------------
 -----7-7-----7-7-----4-4-----2-2-----------------------------------------


 -------------------------------------------------------------------------
 -------------------------------------------------------------------------
 -------------------------------------------------------------------------
 -----9-9-9-9---9-9-9-9---6-6-6-6---4-4-4-4------------------------------- (x2)
 -----9-9-9-9---7-7-7-7---6-6-6-6---4-4-4-4-------------------------------
 -----7-7-7-7---7-7-7-7---4-4-4-4---2-2-2-2-------------------------------


 
[Verse 1]
 -----------------------------------------------------------------------
 -----------------------------------------------------------------------
 -------------------------------------7-7-7-7-7-7-7-7------------------- 
 -7-7-7-7-7-7-7-7---7-7-7-7-7-7-7-7- -7-7-7-7-7-7-7-7---7-7-7-7-7-7-7-7- (4x)
 -9-9-9-9-9-9-9-9---7-7-7-7-7-7-7-7-- 5-5-5-5-5-5-5-5---5-5-5-5-5-5-5-5- 
 -7-7-7-7-7-7-7-7---5-5-5-5-5-5-5-5---------------------3-3-3-3-3-3-3-3-
                                                        ^  ^  ^  ^  ^  ^
                                                   4th time play this part 12x

[Chorus]
 -------------------------------------------------------------------------
 -------------------------------------------------------------------------
 -------------------------------------------------------------------------
 -----9-9-9-9---9-9-9-9---6-6-6-6---4-4-4-4------------------------------- (x2)
 -----9-9-9-9---7-7-7-7---6-6-6-6---4-4-4-4-------------------------------
 -----7-7-7-7---7-7-7-7---4-4-4-4---2-2-2-2-------------------------------


 -------------------------------------------------------------------------
 -------------------------------------------------------------------------
 -------------------------------------------------------------------------
 -----9-9-----9-9-----6-6-----4-4----------------------------------------- 
 -----9-9-----7-7-----6-6-----4-4-----------------------------------------
 -----7-7-----7-7-----4-4-----2-2-----------------------------------------


 -------------------------------------------------------------------------
 -------------------------------------------------------------------------
 -------------------------------------------------------------------------
 -----9-9-9-9---9-9-9-9---6-6-6-6---4-4-4-4------------------------------- (x2)
 -----9-9-9-9---7-7-7-7---6-6-6-6---4-4-4-4-------------------------------
 -----7-7-7-7---7-7-7-7---4-4-4-4---2-2-2-2-------------------------------


[Verse 1]
 -----------------------------------------------------------------------
 -----------------------------------------------------------------------
 -------------------------------------7-7-7-7-7-7-7-7------------------- 
 -7-7-7-7-7-7-7-7---7-7-7-7-7-7-7-7- -7-7-7-7-7-7-7-7---7-7-7-7-7-7-7-7- (4x)
 -9-9-9-9-9-9-9-9---7-7-7-7-7-7-7-7-- 5-5-5-5-5-5-5-5---5-5-5-5-5-5-5-5- 
 -7-7-7-7-7-7-7-7---5-5-5-5-5-5-5-5---------------------3-3-3-3-3-3-3-3-
                                                        ^  ^  ^  ^  ^  ^
                                                   4th time play this part 12x
[Ending Chorus]
 -------------------------------------------------------------------------
 -------------------------------------------------------------------------
 -------------------------------------------------------------------------
 -----9-9-9-9---9-9-9-9---6-6-6-6---4-4-4-4------------------------------- (x2)
 -----9-9-9-9---7-7-7-7---6-6-6-6---4-4-4-4-------------------------------
 -----7-7-7-7---7-7-7-7---4-4-4-4---2-2-2-2-------------------------------


 -------------------------------------------------------------------------
 -------------------------------------------------------------------------
 -------------------------------------------------------------------------
 -----9-9-----9-9-----6-6-----4-4----------------------------------------- (x2)
 -----9-9-----7-7-----6-6-----4-4-----------------------------------------
 -----7-7-----7-7-----4-4-----2-2-----------------------------------------


 -------------------------------------------------------------------------
 -------------------------------------------------------------------------
 -------------------------------------------------------------------------
 -----9-9-9-9---9-9-9-9---6-6-6-6---4-4-4-4------------------------------- (x4)
 -----9-9-9-9---7-7-7-7---6-6-6-6---4-4-4-4-------------------------------
 -----7-7-7-7---7-7-7-7---4-4-4-4---2-2-2-2-------------------------------


 -------------------------------------------------------------------------
 -------------------------------------------------------------------------
 -------------------------------------------------------------------------
 -----9-9-9-9-9-9-9-9-9---------------------------------------------------
 -----9-9-9-9-9-9-9-9-9---------------------------------------------------
 -----7-7-7-7-7-7-7-7-7---------------------------------------------------

   [Chorus]
Caroline, I love your pretty eyes
Caroline, I’ll play my guitar for you anytime
Because I  
Love You
Need You
Miss you
And I want you
Oh Caroline, Caroline I’ll love you all life
Caroline, Caroline please tell me that you’re mine 
  
  [Verse 1]
Since the day I met you there 
With your long golden hair 
I knew we were meant to be 
It must be destiny
It was so plain to see
That you needed me
So I asked you for your name
And I’ll never forget what you said

  [Chorus]
Caroline, I love your pretty eyes
Caroline, I’ll play my guitar for you anytime
Because I  
Love You
Need You
Miss you
And I want you
Oh Caroline, Caroline I’ll love you all life
Caroline, Caroline please tell me that you’re mine

  [Verse 2]
Now all this time has passed
But we’re still moving slowly, slowly
At least we’re alone at last
And no one’s gonna come between us, Again
I remember the days
When you loved me, truly loved me 
But it’s hard for you to see
That I miss you, I miss you 

  [Chorus 2]
Caroline, I love your pretty eyes
Caroline, I’ll play my guitar for you anytime
Because I  
Love You
Need You
Miss you
And I want you
Love You
Need You
Miss you
And I want you 
Oh Caroline, Caroline I’ll love you all life
Caroline, Caroline please tell me that you’re mine
Caroline, Caroline I need you all the time
Caroline, Caroline I’ll love you all of my life
Suggest correction
Give kudos to tab author, rate the tab!
1 2 3 4 5
comments
print report bad tab
guest
You may want to rate the tab now too:
select rating
Wanna post a correction for this tab? Suggest correction