Oops, an error
Loading. Please wait.

Banx - Vytorial Tab

87 views 1 this week
2 commentsread comments
1 2 3 4 5
please rate
add to favorites
launch autoscroll
font size
0
reset
how to read this tab
guitar tuner
Autoscroll
slow
fast
+/-
esc
set tempo
stop
Help us to improve Ultimate-Guitar.com Take our survey!
×
-------------------------------------------------------------------------------
Vytorial - Banx
-------------------------------------------------------------------------------
Tabbed by: Banx
Email: banx14@hotmail.com

Hey UG
Heres a lil taste of what ive been working on and any suggestions or add-ons
are welcome, tell me its great, tell me it sucks, I don't give a sh^t, I just
want some hands-on testers to tell me if its anygood
Tuning: E-A-D-G-B-e
Riff #1                        ||verse||
e|---------------------------------------------------------------------------|
B|---------------------------------------------------------------------------|
G|---------------------------------------------------------------------------|
D|---------------------------------------------------------------------------|
A|---------------------------------------------------------------------------|
E|-00-2-00-2-00-2-0-2/3-33--00-3-00-3-00-3-0-3/2-22--------------------------|
   Xx   xx   xx   x         xx   xx   xx   x
e|---------------------------------------------------------------------------------|
B|---------------------------------------------------------------------------------|
G|---------------------------------------------------------------------------------|
D|---------------------------------------------------------------------------------|
A|-------------------------5/7-77-7/9-99- 9/10-10-10-10\9-99-9\7-77-7\5-55-5\4-44-2|
E|-00-2-00-2-00-2-0-2/3-33-3/5-55-5/7-77--7/8---8--8--8\7-77-7\5-55-5\3-33-3\2-22-0|
   Xx   xx   xx   x
Riff #2                      ||chorus||
e|---------------------------------------------------------------------------|
B|---------------------------------------------------------------------------|
G|---------------------------------------------------------------------------|
D|---------------------------------------------------------------------------|
A|-14-X-X-14-X-12-X-X-12-X-11-X-X-11-X-9-X-X-9/14-X-X------------------------|
E|-12-X-X-12-X-10-X-X-10-X--9-X-X--9-X-7-X-X-7/12-X-X------------------------|
Riff #3                     ||Bridge #1||
e|--------------------------------||-------------------------|----------|----|
B|--------------------------------||-------------------------|----------|----|
G|-----9-------8-------7-------7--||-----7-----9-----9-----9-|-----8|   |--7-|
D|---7---7---7---7---7---7---7----||---7-----7-----7-----7---|---7--|x4 |-7--|
A|-7-------7-------7-------7------||-7-----7-----7-----7-----|-7----|   |7---|
E|--------------------------------||-------------------------|----------|----|
Riff #4                     ||interlude||
e|---------------------------------------------------------------------------|
B|---------------------------------------------------------------------------|
G|--------------0h2p0------------------------------7p5h7p5h7-----------------|
D|--------0h2p0-------0h2p0--------------5h7p5h7p5---------------------------|
A|--0h2p0-------------------3-2-0-2-3-2-----------------------7-5------------|
E|----------------------------------------------------------------7-5-2-0h2p0|

Note: in riff #4, practice at a moderate pace and build speed until you can
play it really fast like its supposed to sound


Riff #5                     ||Bridge #2||
e|---------------------------------------------------------------------------|
B|---------------------------------------------------------------------------|
G|---------------------------------------------------------------------------|
D|-x-xx-x-x-x-xx-x-x-x-xx-x-x-x-xx-x-x-x-xx-x-x-x-xx-x-x-x-xx----------------|
A|-x-xx-x-x-x-xx-x-x-x-xx-x-x-x-xx-x-x-x-xx-x-x-x-xx-x-x-x-xx----------------|
E|-0-00-0-0-0-00-0-0-0-00-0-0-0-00-0-0-0-00-0-0-0-00-0-0-0-00r---------------|
Riff #6                       ||Outro||
e|---------------------------------------------------------------------------|
B|---------------------------------------------------------------------------|
G|---------------------------------------------------------------------------|
D|---------------------------------------------------------------------------|
A|---------------------------------------------------------------------------|
E|--/12-14-12-14-16-14-16-17-16-14-16-14-12-14-12-10-11r---------------------|

-Song Order-
Intro
Verse X2
Chorus
Verse
Bridge
Chorus
Interlude
Verse X2
Bridge 2
Interlude 
Chorus X2
Outro
-----------------------
 /  slide up
 \  slide down
 h  hammer-on
 p  pull-off
 ~  vibrato
 +  harmonic
 x  palm mute note
 r  let note ring
=============================================================================
Suggest correction new What's this?
You can suggest a correction to this tab. Community and Mods will review your correction and vote to approve or reject it.
comments
We did not receive enough feedback on this tab! Please rate:
print report bad tab
1 2 3 4 5
2 comments total.
0 reply
hippieboy444 7,139 wrote on August 10 2006, 07:17 pm

it was okay

0 reply
Caleb27s 62 wrote on January 2 2009, 08:00 pm

i loved it! **** no i hated it!

guest
You may want to rate the tab now too:
select rating
Please do not post tabs as comments. Select "correction" instead!