Oops, an error
Loading. Please wait.

Chad Knight - One Tab

4 views 3 this week
no commentswrite comment
1 2 3 4 5
3 more votes to show rating
add to favorites
launch autoscroll
font size
0
reset
how to read this tab
guitar tuner
Autoscroll
slow
fast
+/-
esc
set tempo
stop
Help us to improve Ultimate-Guitar.com Take our survey!
×
Author
[Intro]

e|-0-0----0--0------------0-0----------------------------------|
B|-1-0----0--1----1--0----0-1----------------------------------|
G|-2-2----0--0----2--2----2-2----------------------------------|
D|-2-2----2--2----3--3----0-0----------------------------------|
A|-0-0----3--3----3--3----0-0----------------------------------|
E|-0-0----0--0------------0-0----------------------------------|


e|-0-0---0-0---------0-3---------------------------------------|
B|-1-3---1-3---1-3---0-3---------------------------------------|
G|-2-2---0-0---2-2---0-0---------------------------------------|
D|-2-2---2-2---3-3---0-0---------------------------------------|
A|-0-0---3-3---3-3---2-x---------------------------------------|
E|-0-0---0-0---------3-3---------------------------------------|



************************************

| x  Dead note

************************************
Suggest correction
Give kudos to tab author, rate the tab!
1 2 3 4 5
comments
print report bad tab
guest
You may want to rate the tab now too:
select rating
Wanna post a correction for this tab? Suggest correction