Oops, an error
Loading. Please wait.

Comical Aspirin - Ob Tab

73 views 1 this week
no commentswrite comment
1 2 3 4 5
3 more votes to show rating
add to favorites
launch autoscroll
font size
0
reset
how to read this tab
guitar tuner
×
Best way to learn
"Comical Aspirin - Ob"
Autoscroll
slow
fast
+/-
esc
set tempo
stop
Author
this is one of the first songs that i wrote:

Intro
E|-----------------|-----------------|-----------------|-----------------|
B|-----------------|-----------------|-----------------|-----------------|
G|-----0-----0-----|-----------------|-----------------|-----------------|
D|---2-----2-----2-|-----0-----0-----|-----0-----0-----|-----0-----0-----|
A|-3-----3-----3---|---2-----2-----2-|---3-----3-----3-|---2-----2-----2-|
E|-----------------|-3-----3-----3---|-1-----1-----1---|-3-----3-----3---|
repeat twice

Verse riff 1
E|---------------|-----------------|
B|---------------|-----------------|
G|---------------|-----------------|
D|---2-0---3-3-3-|-5-5-5---3-2-0---|  (x4)
A|-3-----3-3-3-3-|-5-5-5-5-------3-|
E|---------1-1-1-|-3-3-3-----------|

Verse riff 2
E|---------------|-----------------|
B|---------------|-----------------|
G|---------------|-----------------|
D|---2-0---b3~~~-|-----------------|   (x1)
A|-3-----3-------|-3-2-0-----2-3-0-|
E|---------------|-------1-3-------|

Verse riff 3
F5(x8)G5(x8) power chords played twice
Verse Riff 1 (x4)

Pre-chorus riff
E|-----------------|---------------|
B|-----------------|---------------|
G|-----------------|---------------|
D|---2-0---3-2-0---|---3-2-5-3-2-0-|   (x2)
A|-3-----3-------3-|-5-------------|
E|-----------------|---------------|

Chorus
C5(x8),G(x8),F(x8),G(x8)
C5(x8),G(x8),E5(x8),F(x8) repeat pattern twice
Chorus chords are:EADGBe
               C5(X355XX)
                G(3554XX)
                F(1332XX)
               E5(022XXX)

Play verse and chorus again.

Solo
E|-----------------|---------------|-------------------|----------------|
B|-----------------|---------------|-8p7p5-------------|----------------|
G|-----------------|---------5-7-5-|---------5-7-7/9-7-|-------7-9-10-7-|
D|-----------------|-5-5-5/7-------|-------7-----------|-9-9-9----------|
A|---7-5-------3-5-|---------------|-------------------|----------------|
E|-8-----8-5-5-----|---------------|-------------------|----------------|

E|-----------------------|------------8-10-b10-8/7------|
B|-10-10-10-8--------5-6-|-8-8-8-8/10--------------10-8-|
G|------------10-9-5-----|------------------------------|
D|-----------------------|------------------------------|
A|-----------------------|------------------------------|
E|-----------------------|------------------------------|

E|----------------------|--------------------|
B|-10(x8)-12(x8)-13(x8)-|-15(x4)-13-12-10----|
G|----------------------|-----------------12-|
D|----------------------|--------------------|
A|----------------------|--------------------|
E|----------------------|--------------------|

Chorus to fade


And voila!
Suggest correction
Give kudos to tab author, rate the tab!
1 2 3 4 5
comments
print report bad tab
guest
You may want to rate the tab now too:
select rating
Wanna post a correction for this tab? Suggest correction