Oops, an error
Loading. Please wait.

Ctsutter - Shine Like Stars Acoustic tab

100 views 1 this week
no commentswrite comment
1 2 3 4 5
3 more votes to show rating
add to favorites
×
Save as Personal and add changes to this tab that will be seen only by you. Learn more ›
×
You can save this tab as Personal to edit and correct it or add notes. All changes will be seen only by you. Learn more »
launch autoscroll
font size
0
reset
how to read this tab
guitar tuner
edit
Autoscroll
slow
fast
+/-
esc
set tempo
stop
Author
Difficulty
SHINE LIKE STARS BY CTSUTTER ON ULTIMATE-GUITAR.COM

Tempo : 76

Lyrics by : Christian Thomas Sutter

Composed by : Christian Thomas Sutter

Guitar Tab by : Christian Thomas Sutter



Verse 1 ( arpeggio ) 

  Em7         B7    C7
e|----------|---------|
B|-----8----|---------|
G|---7--7---|-------9-|
D|--9----9--|---7---8-|
A|-7--7---7-|--9---10-|
E|----------|-7--7--8-|

            Em7                    B7             C7
     We can start from scratch and make it to the top

            Em7                  B7            C7
     We can write a hot song and make the beat drop

            Em7                         B7         C7
     We can take the record to the city and get it spun

         Em7                        B7          C7
     Say Props to the DJ’s that was nice put us on



Bridge ( Strum and let ring ) 
  
   Dsus4(omit 5) Dadd9add11  C#m(#5)/G   Am
e|-0-----------|-0---------|-X---------|-x----------|
B|-8-----------|-7---------|-X---------|-x----------|
G|-7-----------|-0---------|-8---------|-5----------|
D|-0-----------|-7---------|-9---------|-7----------|
A|-7-----------|-5---------|-9---------|-7----------|
E|-X-----------|-X---------|-7---------|-5----------|

     Dsus4 (omit 5)      Dadd9add11            C#m(#5)/G          Am
     If you believe that we should team up and make plans for stardom

     Dsus4 (omit 5)        Dadd9add11          C#m(#5)/G         Am
     We can make a promise to work our hardest to get this dream on



Chorus ( Strum guitar & repeat 2 times)

   C         A         Bm/E      Bm/E
e|-0-0-0-0-|-5-5-5-5-|-7-7-7-7-|-7-7-7-7-|
B|-5-5-5-5-|-5-5-5-5-|-7-7-7-7-|-7-7-7-7-|
G|-0-0-0-0-|-6-6-6-6-|-7-7-7-7-|-7-7-7-7-|
D|-5-5-5-5-|-7-7-7-7-|-9-9-9-9-|-9-9-9-9-|
A|-3-3-3-3-|-7-7-7-7-|-7-7-7-7-|-7-7-7-7-|
E|-X-x-x-x-|-5-5-5-5-|-x-x-x-x-|-x-x-x-x-|

     C                 A                Bm/E                Bm/E
     We should team up Get the dream on shine like stars my friend



Verse 2

  Em7         B7    C7
e|----------|---------|
B|-----8----|---------|
G|---7--7---|-------9-|
D|--9----9--|---7---8-|
A|-7--7---7-|--9---10-|
E|----------|-7--7--8-|

            Em7                    B7       C7
     We can start from scratch and become bff’s 

      Em7                       B7        C7
     If you have the talent and I can see that

            Em7         B7               C7
     The it factor that makes you up and coming

     Em7                             B7      C7
     You can become something if you want it bad


Bridge 
  
   Dsus4(omit 5) Dadd9add11  C#m(#5)/G   Am
e|-0-----------|-0---------|-X---------|-x----------|
B|-8-----------|-7---------|-X---------|-x----------|
G|-7-----------|-0---------|-8---------|-5----------|
D|-0-----------|-7---------|-9---------|-7----------|
A|-7-----------|-5---------|-9---------|-7----------|
E|-X-----------|-X---------|-7---------|-5----------|

     Dsus4 (omit 5)      Dadd9add11            C#m(#5)/G          Am
     If you believe that we should team up and make plans for stardom

     Dsus4 (omit 5)        Dadd9add11          C#m(#5)/G         Am
     We can make a promise to work our hardest to get this dream on




Chorus ( Strum guitar & repeat 2 times)

   C         A         Bm/E      Bm/E
e|-0-0-0-0-|-5-5-5-5-|-7-7-7-7-|-7-7-7-7-|
B|-5-5-5-5-|-5-5-5-5-|-7-7-7-7-|-7-7-7-7-|
G|-0-0-0-0-|-6-6-6-6-|-7-7-7-7-|-7-7-7-7-|
D|-5-5-5-5-|-7-7-7-7-|-9-9-9-9-|-9-9-9-9-|
A|-3-3-3-3-|-7-7-7-7-|-7-7-7-7-|-7-7-7-7-|
E|-X-x-x-x-|-5-5-5-5-|-x-x-x-x-|-x-x-x-x-|

     C                 A                Bm/E                Bm/E
     We should team up Get the dream on shine like stars my friend


Verse 3

  Em7         B7    C7
e|----------|---------|
B|-----8----|---------|
G|---7--7---|-------9-|
D|--9----9--|---7---8-|
A|-7--7---7-|--9---10-|
E|----------|-7--7--8-|

    Em7                        B7          C7
    You have the look a lot of people have that

    Em7                    B7           C7
    You talk the talk that sparked my interest

    Em7                           B7       C7
    We should have a conversation about my A Team

    Em7                      B7          C7
    With YouNow we’ll make a run for the dream


Bridge 
  
   Dsus4(omit 5) Dadd9add11  C#m(#5)/G   Am
e|-0-----------|-0---------|-X---------|-x----------|
B|-8-----------|-7---------|-X---------|-x----------|
G|-7-----------|-0---------|-8---------|-5----------|
D|-0-----------|-7---------|-9---------|-7----------|
A|-7-----------|-5---------|-9---------|-7----------|
E|-X-----------|-X---------|-7---------|-5----------|

     Dsus4 (omit 5)      Dadd9add11            C#m(#5)/G          Am
     If you believe that we should team up and make plans for stardom

     Dsus4 (omit 5)        Dadd9add11          C#m(#5)/G         Am
     We can make a promise to work our hardest to get this dream on



Chorus ( Strum guitar & repeat 2 times)

   C         A         Bm/E      Bm/E
e|-0-0-0-0-|-5-5-5-5-|-7-7-7-7-|-7-7-7-7-|
B|-5-5-5-5-|-5-5-5-5-|-7-7-7-7-|-7-7-7-7-|
G|-0-0-0-0-|-6-6-6-6-|-7-7-7-7-|-7-7-7-7-|
D|-5-5-5-5-|-7-7-7-7-|-9-9-9-9-|-9-9-9-9-|
A|-3-3-3-3-|-7-7-7-7-|-7-7-7-7-|-7-7-7-7-|
E|-X-x-x-x-|-5-5-5-5-|-x-x-x-x-|-x-x-x-x-|

     C                 A                Bm/E                Bm/E
     We should team up Get the dream on shine like stars my friend




Lyrics 

Verse 1
            Em7                    B7             C7
     We can start from scratch and make it to the top

            Em7                  B7            C7
     We can write a hot song and make the beat drop

            Em7                         B7         C7
     We can take the record to the city and get it spun

         Em7                        B7          C7
     Say Props to the DJ’s that was nice put us on


Bridge

     Dsus4 (omit 5)      Dadd9add11            C#m(#5)/G          Am
     If you believe that we should team up and make plans for stardom

     Dsus4 (omit 5)        Dadd9add11          C#m(#5)/G         Am
     We can make a promise to work our hardest to get this dream on

Chorus

     C                 A                Bm/E                Bm/E
     We should team up Get the dream on shine like stars my friend



Verse 2
            Em7                    B7       C7
     We can start from scratch and become bff’s 

      Em7                       B7        C7
     If you have the talent and I can see that

            Em7         B7               C7
     The it factor that makes you up and coming

     Em7                             B7      C7
     You can become something if you want it bad

Bridge

     Dsus4 (omit 5)      Dadd9add11            C#m(#5)/G          Am
     If you believe that we should team up and make plans for stardom

     Dsus4 (omit 5)        Dadd9add11          C#m(#5)/G         Am
     We can make a promise to work our hardest to get this dream on


Chorus 

     C                 A                Bm/E                Bm/E
     We should team up Get the dream on shine like stars my friend


Verse 3

    Em7                        B7          C7
    You have the look a lot of people have that

    Em7                    B7           C7
    You talk the talk that sparked my interest

    Em7                           B7       C7
    We should have a conversation about my A Team

    Em7                      B7          C7
    With YouNow we’ll make a run for the dream

Bridge

     Dsus4 (omit 5)      Dadd9add11            C#m(#5)/G          Am
     If you believe that we should team up and make plans for stardom

     Dsus4 (omit 5)        Dadd9add11          C#m(#5)/G         Am
     We can make a promise to work our hardest to get this dream on


Chorus 

     C                 A                Bm/E                Bm/E
     We should team up Get the dream on shine like stars my friend



[This song was written and first played on YouNow. Find the broadcast www.younow.com/ChristianSutter.
The recorded version of this song will become available in the future.]


************************************

| x   Dead note
| g   Grace note
| (n) Ghost note
| h   Hammer-on
| p   Pull-off
| r   Release
| >   Accented note
| t   Tapping
| b   Bend
| br  Bend release
| pb  Pre-bend
| pbr Pre-bend release
| /   Slide up
| \   Slide down
| ~   Vibrato
| s   Slap
| P   Pop
| PM  Palm mute
| TR  Trill
| N   Tremolo

************************************
Suggest correction
Creating personal tab
Creating personal tab
You can edit any tab online and save it as your Personal.

You can edit, replace or remove any tab part or add personal notes – all changes will be seen only by you.

Personal tabs can be accessed anytime from any device, even offline.
Learn more »
Give kudos to tab author, rate the tab!
1 2 3 4 5
comments
print report bad tab
guest
You may want to rate the tab now too:
select rating
Wanna post a correction for this tab? Suggest correction