Oops, an error
Loading. Please wait.

Daniel Sneddon - Say Nothin Tab

1 view 1 this week
no commentswrite comment
1 2 3 4 5
3 more votes to show rating
add to favorites
launch autoscroll
font size
0
reset
how to read this tab
guitar tuner
Autoscroll
slow
fast
+/-
esc
set tempo
stop
Help us to improve Ultimate-Guitar.com Take our survey!
×
Author
[Solo]

e|-----------3-------------------------------|
B|---------1---3-----------------------------|
G|------2--------0-------------------3-1-2b--|
D|----0------------2-----2--------0----------|
A|-3------------------1-----3--1-----3-------|
E|-------------------------------------------|

e|-3-----0-|
B|-0-----0-|
G|-0--2--0-|
D|-0--2--0-|
A|-1-----0-|
E|-2-----0-|

e|----------------------1------------|--1-2---------------2----------------------|
B|------------------------0----------|--0---1-0-0-3-0-2-1---3--------------------|
G|--0--0--1--2--3-----------2--------|--0---------------------0-1-2-2-3-0-0-2p---|
D|--------------3-----2-------0------|--0----------------------------------------|
A|----------------3-3-----------3----|--0----------------------------------------|
E|--------------------------------0--|--0----------------------------------------|



************************************

| b  Bend
| p  Pull-off

************************************
Suggest correction
Give kudos to tab author, rate the tab!
1 2 3 4 5
comments
print report bad tab
guest
You may want to rate the tab now too:
select rating
Wanna post a correction for this tab? Suggest correction