Oops, an error
Loading. Please wait.

Danny Serino - Rockin The Joke Tab

83 views 3 this week
no commentswrite comment
1 2 3 4 5
please rate
add to favorites
launch autoscroll
font size
0
reset
how to read this tab
guitar tuner
Autoscroll
slow
fast
+/-
esc
set tempo
stop
Help us to improve Ultimate-Guitar.com Take our survey!
×
Author
Difficulty
intermediate
Tabbed by: Danny
Email: gtr1pno1
Check Out www.myspace.com/dannyserino
and
www.youtube.com/gtr1pno1

Tuning: standard
Key: ~ = vibrato
     b = bend
     p/h = pull off/ hammer on
     / = slide

intro:
(starts out with 1,2,3,4)

e|---------------------------------|
B|---------------------------------|
G|-------5-------5-------5-------5-|
D|-5-----5-3-----5-5-----5-3-----5-|
A|-5-----3-3-----3-5-----3-3-----3-|
E|-3-------1-------3-------1-------|
 |
e|-----------------3-3-3-3-3-3-3-3-|
B|-----------------3-3-3-3-3-3-3-3-|
G|---------------------------------|
D|---------------------------------|
A|---------------------------------|
E|---------------------------------|

***continue pattern with solo:

e|--------------------------15-------15--------------|
B|----------------------------18p15----18p15--15-18b-|
G|---------15~---15-17b-17b--------17-------17-------|
D|----15-17----17------------------------------------|
A|-/17-----------------------------------------------|
E|---------------------------------------------------|

e|-15-18p15--15-18p15--15-18p15--15-18p15--------------------------|
B|------------------------------------------18p15------------------|
G|---------17--------17--------17--------17------17-17p15--17-17b--|
D|-------------------------------------------------------17--------|
A|-----------------------------------------------------------------|
E|-----------------------------------------------------------------|

e|----------------------------------------------------|
B|----------------------------------------------------|
G|-17b-17-15-15~-----15-17-17p15----------------------|
D|----------------/17-----------17-17p15--------------|
A|--------------------------------------17-17p15------|
E|----------------------------------------------18~---|

e|----------------------------------------18--18-20-20b-------|
B|----------------------------18--18h19h20--20----------------|
G|----------------15--15h17/19--19----------------------------|
D|----15--15h16h17--17----------------------------------------|
A|-/17--17----------------------------------------------------|
E|------------------------------------------------------------|

Verse:

e|-------------------|
B|-3-3-5-5-6-6-5h6p5-|
G|-4-4-5-5-5-5-5-----|
D|-5-5-5-5-7-7-5h7p5-|
A|-------------------|
E|-------------------|

repeat for the words

You see,
In your fields of fire,
In your skies of blue,
No ones gonna let you down,
I wanna love you,
Just like it should be,
And no one's Rockin' the Joke

Chorus:

e|---------------------------------|
B|---------------------------------|
G|-------5-------5-------5-------5-|
D|-5-----5-3-----5-5-----5-3-----5-|
A|-5-----3-3-----3-5-----3-3-----3-|
E|-3-------1-------3-------1-------|
 |
e|-3-3-3-3-3-3-3-3-3-3-3-3-3-3-3-3-|
B|-3-3-3-3-3-3-3-3-3-3-3-3-3-3-3-3-|
B|---------------------------------|
G|---------------------------------|
D|---------------------------------|
A|---------------------------------|
E|---------------------------------|

repeat

And everyone wants you,   And I need you  Rockin' the Joke
e|-----------3------------------5----------------|
B|-----------5------------------7----------------|
G|-----------5------------------7----------------|
D|-----------5------------------7----------------|
A|-----------3------------------5----------------|
E|-----------3------------------5----------------|


e|-------------------|
B|-3-3-5-5-6-6-5h6p5-|
G|-4-4-5-5-5-5-5-----|
D|-5-5-5-5-7-7-5h7p5-|
A|-------------------|
E|-------------------|

e|-------------------|
B|-3-3-5-5-6-6-5h6p5-|
G|-4-4-5-5-5-5-5-----|
D|-5-5-5-5-7-7-5h7p5-|
A|-------------------|
E|-------------------|

And everyone wants you,   And I need you  to Rock
e|-----------3------------------5----------------|
B|-----------5------------------7----------------|
G|-----------5------------------7----------------|
D|-----------5------------------7----------------|
A|-----------3------------------5----------------|
E|-----------3------------------5----------------|

  ooooooooooooooooon
e|-------------------|
B|-3-3-5-5-6-6-5h6p5-|
G|-4-4-5-5-5-5-5-----|
D|-5-5-5-5-7-7-5h7p5-|
A|-------------------|
E|-------------------|

repeat

Pre Solo:

e|-13p12p10--------------------------------------------------|
B|---------13p12p10------------------------------------------|
G|-----------------12p10p9-----------------------------------|
D|------------------------12p10p9----------------------------|
A|-------------------------------12p10p8---------------------|
E|--------------------------------------12p10p8~-------------|
 |
e|-----------------------------------------------------------|
B|--------------------------------------------5/6------------|
G|--------------------------------------------5/6------------|
D|--------------------------------------------5/6------------|
A|-----------------------------------------------------------|
E|-----------------------------------------------------------|

e|-------------------|
B|-2-2-4-4-5-5-4h5p4-|
G|-3-3-4-4-4-4-4-----|
D|-4-4-4-4-6-6-4h6p4-|
A|-------------------|
E|-------------------|

e|-------------------|
B|-2-2-4-4-5-5-4h5p4-|
G|-3-3-4-4-4-4-4-----|
D|-4-4-4-4-6-6-4h6p4-|
A|-------------------|
E|-------------------|

Then sensless soloing in Ab Pent. Scale

============================================================================
Suggest correction
Give kudos to tab author, rate the tab!
1 2 3 4 5
comments
print report bad tab
guest
You may want to rate the tab now too:
select rating
Please do not post tabs as comments. Select "correction" instead!