Oops, an error
Loading. Please wait.

Dean Justin - Blur Tab

137 views 1 this week
1 commentread comment
1 2 3 4 5
please rate
add to favorites
launch autoscroll
font size
0
reset
how to read this tab
guitar tuner
Autoscroll
slow
fast
+/-
esc
set tempo
stop
Help us to improve Ultimate-Guitar.com Take our survey!
×
Author
justin dean
hey everybody. this is a song i wrote. ya'll may like it or not but i thought i'd share. 
so here it goes...

song title: blur
artist: justin dean
drop Db tunning:
low to high: Db Ab Db Gb Bb Eb

key:
p    = pull off
p.m. = palm mute
m    = mute
~    = vibrato
/    = slide down
fb   = full bend

(there is an acoustic guitar that plays along with everything that the clean and distorted 
guitars do it just gives it a little extra sumthing)


(clean tone)
intro\verse1:
Eb|---------------------------------------------------------
Bb|---------------------------------------------------------
Gb|----7---7---7--------7---7---7---------7---7---7---------
Db|--7---7---7---7----7---7---7---7-----7---7---7---7-------
Ab|5----------------4-----------------3---------------------
Db|0----------------0-----------------0---------------------

Eb|---------------------------------
Bb|---------------------------------         intro:2x
Gb|------7---7---7------------------         verse:4x
Db|----5---5---5---5----------------
Ab|--5---------------5--------------
Db|--5-----------------5------------


(clean tone)
chours:
Eb|-----------------------------------
Bb|-----------------------------------
Gb|-----------------------------------
Db|-5----7-9-7-5------4----7-9-7-4----
Ab|-5----5-5-5-5------4----4-4-4-4----
Db|-5----5-5-5-5------4----4-4-4-4----
                                          chours:2x

Eb|------------------------------------
Bb|------------------------------------
Gb|------------------------------------     end on:
Db|-7----9-11-9-7-----6----9-11-9-6----     Db|-6--7-9p7-6p5
Ab|-7----7--7-7-7-----6----6--6-6-6----     Ab|-6-----------
Db|-7----7--7-7-7-----6----6--6-6-6----     Db|-6-----------

play this after the 1st chours only:
Eb|---------------------------------------------------------
Bb|---------------------------------------------------------
Gb|-7--7---777-----7--7---777-----7--7---777-----7----7-77--
Db|-5--5---555-----4--4---444-----3--3---333-----5----5-55--
Ab|-5--5---555-----4--4---444-----3--3---333-----5----5-55--
Db|-5--5---555-----4--4---444-----3--3---333-----5----5-55--

(clean tone)
intro\verse2:
Eb|---------------------------------------------------------
Bb|---------------------------------------------------------
Gb|----7---7---7--------7---7---7---------7---7---7---------
Db|--7---7---7---7----7---7---7---7-----7---7---7---7-------
Ab|5----------------4-----------------3---------------------
Db|0----------------0-----------------0---------------------

Eb|---------------------------------
Bb|---------------------------------         intro:2x
Gb|------7---7---7------------------         verse:2x
Db|----5---5---5---5----------------
Ab|--5---------------5--------------
Db|--5-----------------5------------

then after 2nd verse play this:
distortion:
Eb|-------------------------
Bb|-------------------------
Gb|-------------------------
Db|-555555555555555---------
Ab|-555555555555555---------
Db|-555555555555555---------
p.m._______________
volume swell<______ 


chours:(distortion)
Eb|-----------------------------------
Bb|-----------------------------------
Gb|-----------------------------------
Db|-5----7-9-7-5------4----7-9-7-4----
Ab|-5----5-5-5-5------4----4-4-4-4----
Db|-5----5-5-5-5------4----4-4-4-4----
                                          chours:2x

Eb|------------------------------------
Bb|------------------------------------
Gb|------------------------------------        
Db|-7----9-11-9-7-----6----9-11-9-6----       
Ab|-7----7--7-7-7-----6----6--6-6-6----       
Db|-7----7--7-7-7-----6----6--6-6-6----       


end 2nd chours w/ this:
Eb|----------------------
Bb|----------------------
Gb|----------------------
Db|-6----9-11-9-6--------
Ab|-6----6--6-6-6--------
Db|-6----6--6-6-6--------

then go straight into the interlude:
guitar 1(acoustic):
Eb|--------------------------------------------------
Bb|--------------------------------------------------
Gb|----------------------------9--11--13----13-13-11-
Db|-3-3-3----3---5--4--2-------0---0---0-----0--0--0-
Ab|-1-1-1---1----3--2--0-------0---0---0-----0--0--0-
Db|--------0-------------------0---0---0-----0--0--0-
let ring_____________________________________________

Eb|--------------------
Bb|--------------------
Gb|-13p11-13p11-9---7--
Db|--0--0--0--0-0---0--
Ab|--0--0--0--0-0---0--
Db|--0--0--0--0-0---0--
   ____________________

Eb|--------------------------------------------------
Bb|--------------------------------------------------
Gb|----------------------------9--11--13----13-13-11-
Db|-3-3-3----3---5m-4m-2-------0---0---0-----0--0--0-
Ab|-1-1-1---1----3m-2m-0-------0---0---0-----0--0--0-
Db|--------0-------------------0---0---0-----0--0--0-
let ring______         ______________________________

Eb|----------------------
Bb|----------------------
Gb|-14p13-14p13--11---9--
Db|--0--0--0--0---0---0--
Ab|--0--0--0--0---0---0--
Db|--0--0--0--0---0---0--
  ______________________

guitar 2(distorted electric):
Eb|--------------------------------------------------
Bb|--------------------------------------------------
Gb|--------------------------------------------------
Db|-3-3-3----3---5--4--2------14--16-18---18--18p16--
Ab|-1-1-1---1----3--2--0-------0---------------------
Db|--------0-------------------0---------------------
let ring_____________________________________________

Eb|-----------------------
Bb|-----------------------
Gb|-----------------------
Db|-18p16-18p16--14~-12~/-
Ab|-----------------------
Db|-----------------------
  ________________________

Eb|--------------------------------------------------
Bb|--------------------------------------------------
Gb|--------------------------------------------------
Db|-3-3-3----3---5m-4m-2------14--16-18---18--18p16--
Ab|-1-1-1---1----3m-2m-0-------0---------------------
Db|--------0-------------------0---------------------
let ring_________      ______________________________

Eb|------------------------
Bb|------------------------
Gb|------------------------
Db|-19p18-19p18-20fb---19~-
Ab|------------------------
Db|------------------------
  _________________________

then acoustic starts chours and 
electric picks up here||
chours:(distortion)   \/
Eb|-----------------------------------
Bb|-----------------------------------
Gb|-----------------------------------
Db|-5----7-9-7-5------4----7-9-7-4----
Ab|-5----5-5-5-5------4----4-4-4-4----
Db|-5----5-5-5-5------4----4-4-4-4----
                                         play this chours 1x

Eb|------------------------------------
Bb|------------------------------------
Gb|------------------------------------        
Db|-7----9-11-9-7-----6----9-11-9-6----       
Ab|-7----7--7-7-7-----6----6--6-6-6----       
Db|-7----7--7-7-7-----6----6--6-6-6----       

then play it like this 4x:
Eb|--------------------------------------------------
Bb|--------------------------------------------------
Gb|--------------------------------------------------
Db|-5-5-5-5-5-5-5-5-4-4-4-4-4-4-4-4-7-7-7-7-7-7-7-7--
Ab|-5-5-5-5-5-5-5-5-4-4-4-4-4-4-4-4-7-7-7-7-7-7-7-7--
Db|-5-5-5-5-5-5-5-5-4-4-4-4-4-4-4-4-7-7-7-7-7-7-7-7--
                                         
Eb|------------------
Bb|------------------
Gb|------------------
Db|-3-3-3-3-3-3-3-3--
Ab|-3-3-3-3-3-3-3-3--
Db|-3-3-3-3-3-3-3-3--
ritardondo___________
(slow down 4th time only)

hold out after 4th time then:
Eb|---------------------------------------------------------
Bb|---------------------------------------------------------
Gb|-7--7---777-----7--7---777-----7--7---7-----7------7-----
Db|-5--5---555-----4--4---444-----3--3---3----3-3-----5-----
Ab|-5--5---555-----4--4---444-----3--3---3---3---3----5-----
Db|-5--5---555-----4--4---444-----3--3---3--3-----3---5-----
                                    slowdown_______
Suggest correction
Give kudos to tab author, rate the tab!
1 2 3 4 5
comments
print report bad tab
1 comment total.
0 reply
juzcook 550 wrote on October 19 2003, 12:00 am

about time i found a song in this section someone actually wrote that doesnt have 4 minutes of 2 riffs

guest
You may want to rate the tab now too:
select rating
Wanna post a correction for this tab? Suggest correction