Oops, an error
Loading. Please wait.

Dr Descend Tab

7 views 1 this week
no commentswrite comment
1 2 3 4 5
3 more votes to show rating
add to favorites
launch autoscroll
font size
0
reset
how to read this tab
guitar tuner
Autoscroll
slow
fast
+/-
esc
set tempo
stop
Help us to improve Ultimate-Guitar.com Take our survey!
×
Author
Difficulty
novice
About this tab version
Introduction to the song Dr Descend. Was this info helpful? Yes No
----------------------------------------------------------------- 
Dr Descend
-----------------------------------------------------------------
instrument: guitar
Tabbed by: vax0 
Tuning: standard

[Intro]

e|-----5-----5-----5---5-6-5-3---3---0---0---0---0-----------------|
B|----3-3---3-3---3-3--------1--1-1--1--1-1--0--0------------------|
G|---4---4-4---4-4---5-------2-2---2-0-0---0-0-0-------------------|
D|--5-----5-----5------------3-------------------------------------|
A|-----------------------------------3-----------------------------|
E|-------------------------------------------3---------------------|
Suggest correction
Give kudos to tab author, rate the tab!
1 2 3 4 5
comments
print report bad tab
guest
You may want to rate the tab now too:
select rating
Wanna post a correction for this tab? Suggest correction