Oops, an error
Loading. Please wait.

Emilio Manzanares - No Name Yet Tab

74 views 3 this week
no commentswrite comment
1 2 3 4 5
3 more votes to show rating
add to favorites
launch autoscroll
font size
0
reset
how to read this tab
guitar tuner
Autoscroll
slow
fast
+/-
esc
set tempo
stop
Help us to improve Ultimate-Guitar.com Take our survey!
×
its not finished yet but i made this up, its the first song ive made up so its really 
every one says its awesome tell me what you think vipervenom1213@yahoo.com

(intro)
E||-0-0-0-0-0-0-3-5-0-0-0-0-0-0-3-6-0-0-0-0-0-0-3-5-0-0-0-0-0-3-5-3-0-|
B||-0-0-0-0-0-0-3-5-0-0-0-0-0-0-3-6-0-0-0-0-0-0-3-5-0-0-0-0-0-3-5-3-0-|
G||-------------------------------------------------------------------|
D||-------------------------------------------------------------------|
A||-------------------------------------------------------------------|
E||-------------------------------------------------------------------|

(Verse)
E||-0-0-0-3-0-0-0-5-0-0-0-7-0-0-0-7-5-3--------|
B||-0-0-0-3-0-0-0-5-0-0-0-7-0-0-0-7-5-3--------|
G||--------------------------------------------|       2x
D||--------------------------------------------|
A||--------------------------------------------|
E||--------------------------------------------|

E||-0-0-0-3-0-0-0-5-0-0-0-7-0-0-0-5-3-0-|
B||-0-0-0-3-0-0-0-5-0-0-0-7-0-0-0-5-3-0-|
G||-------------------------------------|
D||-------------------------------------|
A||-------------------------------------|
E||-------------------------------------|

E||-7-7-5-5-3-3-5-7-7-5-5-3-3-0--------|
B||-7-7-5-5-3-3-5-7-7-5-5-3-3-0--------|
G||------------------------------------|       2x
D||------------------------------------|
A||------------------------------------|
E||------------------------------------|

E||-0-0-0-7-0-0-0-5-0-0-0-3-0-0-0-3-5-7--------|
B||-0-0-0-7-0-0-0-5-0-0-0-3-0-0-0-3-5-7--------|
G||--------------------------------------------|       2x
D||--------------------------------------------|
A||--------------------------------------------|
E||--------------------------------------------|

E||-0-0-0-7-0-0-0-5-0-0-0-3-0-0-0-5-7-0-|
B||-0-0-0-7-0-0-0-5-0-0-0-3-0-0-0-5-7-0-|
G||-------------------------------------|
D||-------------------------------------|
A||-------------------------------------|
E||-------------------------------------|

E||-3-3-5-5-7-7-5-3-3-5-5-7-7-0--------|
B||-3-3-5-5-7-7-5-3-3-5-5-7-7-0--------|
G||------------------------------------|       2x
D||------------------------------------|
A||------------------------------------|
E||------------------------------------|

pretty easy huhive only been playing since 04 Christmas so what
tab ya all later
Suggest correction
Give kudos to tab author, rate the tab!
1 2 3 4 5
comments
print report bad tab
guest
You may want to rate the tab now too:
select rating
Wanna post a correction for this tab? Suggest correction