Oops, an error
Loading. Please wait.

Gannon Bracewell - Dont Go Tab

50 views 1 this week
no commentswrite comment
1 2 3 4 5
please rate
add to favorites
launch autoscroll
font size
0
reset
how to read this tab
guitar tuner
Tab Pro tools
  • play this tab
  • loop segment
  • change instrument
  • show fretboard
  • metronome
×
Best way to learn
"Gannon Bracewell - Dont Go"
Autoscroll
slow
fast
+/-
esc
set tempo
stop
Contributor
#----------------------------------PLEASE NOTE---------------------------------#
#This file is the author's own work and represents their interpretation of the #
#song. You may only use this file for private study, scholarship, or research. #
#------------------------------------------------------------------------------##

                                    DON'T GO
                         As recorded by Gannon Bracewell

Words and Music by Gannon Bracewell
Arranged by Gannon Bracewell
Transcribed by Gannon Bracewell

Gtr I (E A D G B E) - 'Acoustic'
Gtr II (D A D G B D) - 'Rythem'
Gtr III (E A D G B E) - 'Lead'


 Intro
  Q=120
 6/4
  Gtr I
   Q  E E E E E E Q  Q     Q  E E E E E E Q  Q     Q  E E E E E E Q  Q
|-^3--3-----3-----3--3--|-^6--6-----6-----6--6--|-^4--4-----4-----4--4---|
|-^4----4-----4---4--4--|-^6----6-----6---6--6--|-^4----4-----4---4--4---|
|-^5------5-----5-5--5--|-^7------7-----7-7--7--|-^5------5-----5-5--5---|
|-^5--------------5--5--|-^8--------------8--8--|-^6--------------6--6---|
|-----------------------|-----------------------|------------------------|
|-----------------------|-----------------------|------------------------|


   Q  E E E E E E Q  Q     Q  E E E E E E Q  Q     Q  E E E E E E Q  Q
|-^3--3-----3-----3--3--|-^6--6-----6-----6--6--|-^4--4-----4-----4--4--|
|-^4----4-----4---4--4--|-^6----6-----6---6--6--|-^4----4-----4---4--4--|
|-^5------5-----5-5--5--|-^7------7-----7-7--7--|-^5------5-----5-5--5--|
|-^5--------------5--5--|-^8--------------8--8--|-^6--------------6--6--|
|-----------------------|-----------------------|-----------------------|
|-----------------------|-----------------------|-----------------------|


                  Verse
  W.                Q  E E E E E E Q  Q
|-3-------------||-^3--3-----3-----3--3--|
|-3-------------||-^4----4-----4---4--4--|
|-4-------------||-^5------5-----5-5--5--|
|-5-------------||-^5--------------5--5--|
|---------------||-----------------------|
|---------------||-----------------------|


   Q  E E E E E E Q  Q     Q  E E E E E E Q  Q
|-^6--6-----6-----6--6--|-^4--4-----4-----4--4----|
|-^6----6-----6---6--6--|-^4----4-----4---4--4----|
|-^7------7-----7-7--7--|-^5------5-----5-5--5----|
|-^8--------------8--8--|-^6--------------6--6----|
|-----------------------|-------------------------|
|-----------------------|-------------------------|


   Q  E E E E E E Q  Q     Q  E E E E E E Q  Q     Q  E E E E E E Q  Q
|-^3--3-----3-----3--3--|-^1--1-----1-----1--1--|-^3--3-----3-----3--3--|
|-^4----4-----4---4--4--|-^2----2-----2---2--2--|-^3----3-----3---3--3--|
|-^5------5-----5-5--5--|-^3------3-----3-3--3--|-^4------4-----4-4--4--|
|-^5--------------5--5--|-^3--------------3--3--|-^5--------------5--5--|
|-----------------------|-----------------------|-----------------------|
|-----------------------|-----------------------|-----------------------|


  Q  Q  W          Q  Q  W          W.
|-1--3--4--------|-3--4--3--------|-0-----|
|-1--3--4--------|-3--4--4--------|-1-----|
|-2--4--5--------|-4--5--3--------|-0-----|
|-3--5--6--------|-5--6--5--------|-2-----|
|----------------|----------------|-------|
|----------------|----------------|-------|


                    Interlude
                  Q=75
                  $
 4/4
          *       Gtr II
          TPTPTPTP                   PM------------------------|
  H.      S S S S    Q  Q  Q  Q    E S S S S S S S S S S S S S S
|-4---------------||-------------|---------------------------------|
|-4---------------||-------------|---------------------------------|
|-5---------------||-5--5--------|---------------------------------|
|-6---------------||-5--5--6--6--|-1-------------------------------|
|---------xsxsxsx-||-3--3--6--6--|-1-1-1-1-1-1-1-1-1-1-1-1-1-1-1---|
|---------xsxsxsx-||-------6--6--|-1-1-1-1-1-1-1-1-1-1-1-1-1-1-1---|
*Pick Slide

  Q  Q  Q  Q    Q  Q  Q  Q    Q  H.        +Q   H.
|-------------|-------------|------------|------------|
|-------------|-------------|------------|------------|
|-5--5--------|-------------|------------|------------|
|-5--5--5--5--|-1--1--1--3--|-5--6-------|-(6)--1-----|
|-3--3--5--5--|-1--1--1--3--|-5--6-------|-(6)--1-----|
|-------5--5--|-1--1--1--3--|-5--6-------|-(6)--1-----|


  Q  Q  H      H    H      Q  Q  H      +W
|------------|-----------|------------|--------||
|------------|-----------|------------|--------||
|------------|-----------|------------|--------||
|-5--3--1----|-3----0----|-3--5--6----|-(6)----||
|-5--3--1----|-3----0----|-3--5--6----|-(6)----||
|-5--3--1----|-3----0----|-3--5--6----|-(6)----||


 Chorus
                                               To Coda
  Q  Q   Q   Q    H    H      H     Q   Q    Q  Q  H
|---------------|-----------|--------------|-----------|
|---------------|-----------|--------------|-----------|
|---------------|-----------|--------------|-----------|
|-6--8--10--10--|-8----6----|-1----10--10--|-8--3--6---|
|-6--8--10--10--|-8----6----|-1----10--10--|-8--3--6---|
|-6--8--10--10--|-8----6----|-1----10--10--|-8--3--6---|


  >
  W          +W
|----------|--------||
|----------|--------||
|----------|--------||
|-5--------|-(5)----||
|-5--------|-(5)----||
|-5--------|-(5)----||


 Interlude
  Gtr I                         Gtr II
                                PM-----|
   Q   Q   H       H     H      S  S S S S S S S S S S S S  S S  S
|-!1--!3--!4----|-!3----!1----|------------------------------------||
|-!1--!3--!4----|-!4----!2----|------------------------------------||
|-!2--!4--!5----|-!3----!1----|------------------------------------||
|-!3--!5--!6----|-!5----!3----|----------1-1-1-1-1-1-1-1-1--1-1--1-||
|---------------|-------------|-1--1-1-1-1-1-1-1-1-1-1-1-1--1-1--1-||
|---------------|-------------|-1--1-1-1-1-1-1-1-1-1-1-1-1--1-1--1-||
|
| Gtr III
|  W               W            H.                       S  S S  S
|---------------|-------------|------------------------------------||
|---------------|-------------|------------------------------------||
|---------------|-------------|-------------------------------8-10-||
|---------------|-------------|--------------------------8-10------||
|---------------|-------------|------------------------------------||
|---------------|-------------|------------------------------------||


 Guitar Solo
  Gtr III
   Q   Q      S      +S  Q.
|------------------------------|
|------------------------------|
|-10--10b12--10pb12r(10)-8-----|
|------------------------------|
|------------------------------|
|------------------------------|
|
| Gtr II
|             PM----|
|  Q   Q      S       S  Q   E
|------------------------------|
|------------------------------|
|--3---5-----------------------|
|--3---5------5-------5--6---6-|
|--1---3------3-------3--6---6-|
|------------------------6---6-|


   S E S  S S  S  Q     Q       +S      Q     Q  Q  Q
|------------------------------------|------------------|
|----------------------10b12===(10)r-|-10b12--8--8--8---|
|-----------8-10-10----10b12===(10)r-|-10b12--8--8--8---|
|-10-8-8-10--------------------------|------------------|
|------------------------------------|------------------|
|------------------------------------|------------------|
|
|                                PM
|  Q      Q         E.  Q        S      Q     Q  Q  Q
|------------------------------------|------------------|
|------------------------------------|------------------|
|-------------------3---5------------|--5---------------|
|--1------1---------3---5--------5---|--5-----1--1--1---|
|--1------1---------1---3--------3---|--3-----1--1--1---|
|--1------1--------------------------|--------1--1--1---|


  S  Q   S  Q  S  S S  S  S  S    S  S S  S S S S S S  S S S S E.
|------------------------------|----------------------------------|
|------------------------------|----------------------------------|
|-8-----------------8-10-12-13-|-12-10-8-10-8-7-8-7---------------|
|---10---8-10--8-10------------|--------------------8-10-8-6-5-6--|
|------------------------------|----------------------------------|
|------------------------------|----------------------------------|
|
|                                 PM-----|
| Q    Q    Q  Q                  S  S S  S Q   Q   Q
|------------------------------|----------------------------------|
|------------------------------|----------------------------------|
|------------------------------|----------------------------------|
|-5----5----1--1---------------|------------1---1---1-------------|
|-3----3----1--1---------------|--0--0-0--0-1---1---1-------------|
|-5----5----1--1---------------|--0--0-0--0-1---1---1-------------|


  E  S  S  S  Q   Q      E.
|------------------------------|
|---------16-18--18b20--18b20==|
|---15-17----------------------|
|-6----------------------------|
|------------------------------|
|------------------------------|
|
|          PM
| Q        S  Q   Q      E.
|------------------------------|
|------------------------------|
|-------------3---5------5-----|
|-1-----------3---5------5-----|
|-1--------1--1---3------3-----|
|-1--------1-------------------|


                                 D.S. al Coda
   +E    S     +S   Q   Q      Q        W
|------------------------------------|-----------||
|-(18)r-18b20r(18)-16--18b20--18b20--|-18b20-----||
|------------------------------------|-----------||
|------------------------------------|-----------||
|------------------------------------|-----------||
|------------------------------------|-----------||
|
|        PM
|  +E    E          Q   Q      Q        W
|------------------------------------|-----------||
|------------------------------------|-----------||
|--(5)--------------3---5------5-----|--5--------||
|--(5)---5----------3---5------5-----|--5--------||
|--(3)---3----------1---3------3-----|--3--------||
|------------------------------------|-----------||


 Outro
  &
  Gtr II
  Q  Q  Q  Q    W
|-------------|------|
|-------------|------|
|-------------|------|
|-5--5--5--5--|-1----|
|-5--5--5--5--|-1----|
|-5--5--5--5--|-1----|


Duration Legend
---------------
W - whole; H - half; Q - quarter; E - 8th; S - 16th; T - 32nd; X - 64th; a - acciaccatura
+ - note tied to previous; . - note dotted; .. - note double dotted
Uncapitalized letters represent notes that are staccato (1/2 duration)
Irregular groupings are notated above the duration line
Duration letters will always appear directly above the note/fret number it represents the
duration for.  Duration letters with no fret number below them represent rests.  Multi-
bar rests are notated in the form Wxn, where n is the number of bars to rest for.  Low
melody durations appear below the staff

Tablature Legend
----------------
 h   - hammer-on
 p   - pull-off
 b   - bend
 pb  - pre-bend
 r   - bend release (if no number after the r, then release immediately)
 /\  - slide into or out of (from/to "nowhere")
 s   - legato slide
 S   - shift slide
  - natural harmonic
[n]  - artificial harmonic
n(n) - tapped harmonic
 ~   - vibrato
 tr  - trill
 T   - tap
 TP  - trem. picking
 PM  - palm muting
\n/  - tremolo bar dip; n = amount to dip
 \n  - tremolo bar down
 n/  - tremolo bar up
/n\  - tremolo bar inverted dip
 =   - hold bend; also acts as connecting device for hammers/pulls
 <>  - volume swell (louder/softer)
 x   - on rhythm slash represents muted slash
 o   - on rhythm slash represents single note slash

Misc Legend
-----------
 |  - bar
||  - double bar
||o - repeat start
o|| - repeat end
*|  - double bar (ending)
 :  - bar (freetime)
 $  - Segno
 &  - Coda
Tempo markers -  = BPM(8/16=s8/s16), where s8 = swing 8ths, s16 = swing 16ths


***************************************************************************************
* Generated using Power Tab Editor by Brad Larsen - http://powertab.guitarnetwork.org *
***************************************************************************************
comments
We did not receive enough feedback on this tab! Please rate:
print report bad tab
1 2 3 4 5
I want to post or [tab]
guest
You may want to rate the tab now too:
select rating
Please do not post tabs as comments. Select "correction" instead!