Oops, an error
Loading. Please wait.

Gannon Bracewell - Farewell My Friend Tab

version 1
version 1

Whole song

Interactive

232 views 1 this week
no commentswrite comment
1 2 3 4 5
please rate
add to favorites
launch autoscroll
font size
0
reset
how to read this tab
guitar tuner
Autoscroll
slow
fast
+/-
esc
set tempo
stop
Help us to improve Ultimate-Guitar.com Take our survey!
×
#----------------------------------PLEASE NOTE---------------------------------#
#This file is the author's own work and represents their interpretation of the #
#song. You may only use this file for private study, scholarship, or research. #
#------------------------------------------------------------------------------##

                              FAREWELL (MY FRIEND)
                         As recorded by Gannon Bracewell
                     (From the 2010 Album GANNON BRACEWELL)

Music by Gannon Bracewell
Arranged by Gannon Bracewell
Transcribed by Gannon Bracewell

Gtr I (E A D G B E) - 'Clean Guitar'
Gtr II (E A D G B E) - 'Clean Lead'

 Intro
  Q=100
  Em      Dsus4/E Gmaj7susGmaj7/E   Em      Dsus4/E Gmaj7susGmaj7/E
 8/4
  Gtr I
  E E E E E E E E E E E E E E E E   E E E E E E E E E E E E E E E E
|---------------------------------|----------------------------------|
|---------------------------------|----------------------------------|
|-------0-------0-------0-------0-|-------0-------0-------0-------0--|
|-----9-------7-------4-------4---|-----9-------7-------4-------4----|
|---7-------5-------3-------2-----|---7-------5-------3-------2------|
|-0-------0-------0-------0-------|-0-------0-------0-------0--------|


  Em      Dsus4/E Gmaj7susGmaj7/E   Em      Dsus4/E Gmaj7susGmaj7/E
  E E E E E E E E E E E E E E E E   E E E E E E E E E E E E E E E E
|---------------------------------|---------------------------------|
|---------------------------------|---------------------------------|
|-------0-------0-------0-------0-|-------0-------0-------0-------0-|
|-----9-------7-------4-------4---|-----9-------7-------4-------4---|
|---7-------5-------3-------2-----|---7-------5-------3-------2-----|
|-0-------0-------0-------0-------|-0-------0-------0-------0-------|


  Em      Dsus4/E Gmaj7susGmaj7/E   Em      Dsus4/E Gmaj7susGmaj7/E
  E E E E E E E E E E E E E E E E   E E E E E E E E E E E E E E E E
|---------------------------------|---------------------------------|
|---------------------------------|---------------------------------|
|-------0-------0-------0-------0-|-------0-------0-------0-------0-|
|-----9-------7-------4-------4---|-----9-------7-------4-------4---|
|---7-------5-------3-------2-----|---7-------5-------3-------2-----|
|-0-------0-------0-------0-------|-0-------0-------0-------0-------|


    Em          Em11        Cmaj7+11/E    Emadd9
    E E E E E E E E E E E E E E E E   E E E E E E E E E E E E E E E E
||----------0-----------0-----------|-0-----------0---------------------||
||o-----------0-----------0---------|---0-----------0------------------o||
||--------0-----------0-----------0-|-----------0-----0-----------------||
||------9-----------7-----------4---|---------4---------4---------------||
||o---7-----------5-----------3-----|-------2-------------2-0----------o||
||--0-----------0-----------0-------|-----0-------------------3-2-0-0---||


  W        +W
|-----------------||
|-----------------||
|-----------------||
|-----------------||
|-----------------||
|-0--------(0)----||


   Verse
    $                                                          To Coda
    Em      Dsus4/E Gmaj7susGmaj7/E   Em      Dsus4/E Gmaj7susGmaj7/E
    E E E E E E E E E E E E E E E E   E E E E E E E E E E E E E E E E
||----------------------------------|----------------------------------|
||o---------------------------------|----------------------------------|
||--------0-------0-------0-------0-|-------0-------0-------0-------0--|
||------9-------7-------4-------4---|-----9-------7-------4-------4----|
||o---7-------5-------3-------2-----|---7-------5-------3-------2------|
||--0-------0-------0-------0-------|-0-------0-------0-------0--------|


  Em          Em11        Cmaj7+11/E    Emadd9
  E E E E E E E E E E E E E E E E   E E E E E E E E E E E E E E E E
|---------0-----------0-----------|-0-----------0--------------------||
|-----------0-----------0---------|---0-----------0-----------------o||
|-------0-----------0-----------0-|-----------0-----0----------------||
|-----9-----------7-----------4---|---------4---------4--------------||
|---7-----------5-----------3-----|-------2-------------2-0---------o||
|-0-----------0-----------0-------|-----0-------------------3-2-0-0--||


 Bridge
  N.C.
  H     H     H     H      H    H    H    H
|------------------------|---------------------|
|------------------------|---------------------|
|------------------------|---------------------|
|------------------------|---------------------|
|------------------------|---------------------|
|-0----/3----/7----\5----|-3----2----3----0----|


  Em      Dsus4/E Gmaj7susGmaj7/E   Em      Dsus4/E Gmaj7susGmaj7/E
  E E E E E E E E E E E E E E E E   E E E E E E E E E E E E E E E E
|---------------------------------|---------------------------------|
|---------------------------------|---------------------------------|
|-------0-------0-------0-------0-|-------0-------0-------0-------0-|
|-----9-------7-------4-------4---|-----9-------7-------4-------4---|
|---7-------5-------3-------2-----|---7-------5-------3-------2-----|
|-0-------0-------0-------0-------|-0-------0-------0-------0-------|


  Em      Am      C         E           Em
  E E E E E E E E E E E E E E E E   E E E E E E E E E E E E E E E E
|-----------------0---------------|-----0-----------------0---------|
|---------------1---1-------------|---0---0-----------------0-------|
|-------0-----2-------0-----------|-1-------0-----------0-----0-----|
|-----2-----2-----------2-------2-|-----------2-------9---------2---|
|---2-----0---------------3---2---|-------------2---7-------------2-|
|-0-------------------------0-----|---------------0-----------------|


          Am      C         E           Em
  E E E E E E E E E E E E E E E E   E E E E E E E E E E E E E E E E
|-----------------0---------------|-----0-----------------0---------||
|---------------1---1-------------|---0---0-----------------0-------||
|-------0-----2-------0-----------|-1-------0-----------0-----0-----||
|-----2-----2-----------2-------2-|-----------2-------9---------2---||
|---2-----0---------------3---2---|-------------2---7-------------2-||
|-0-------------------------0-----|---------------0-----------------||


 Chorus
  E5        G5                    E5
   W         W           W         W
|---------------------|-----------------|
|---------------------|-----------------|
|---------------------|-----------------|
|-^2--------^5--------|-^5--------^2----|
|-^2--------^5--------|-^5--------^2----|
|-^0--------^3--------|-^3--------^0----|


  Em      Dsus4/E Gmaj7susGmaj7/E   Em      Dsus4/E Gmaj7susGmaj7/E
  E E E E E E E E E E E E E E E E   E E E E E E E E E E E E E E E E
|---------------------------------|---------------------------------|
|---------------------------------|---------------------------------|
|-------0-------0-------0-------0-|-------0-------0-------0-------0-|
|-----9-------7-------4-------4---|-----9-------7-------4-------4---|
|---7-------5-------3-------2-----|---7-------5-------3-------2-----|
|-0-------0-------0-------0-------|-0-------0-------0-------0-------|


                                                        D.S. al Coda
  Em          Em11        Cmaj7+11/E    Emadd9
  E E E E E E E E E E E E E E E E   E E E E E E E E E E E E E E E E
|---------0-----------0-----------|-0-----------0---------------------||
|-----------0-----------0---------|---0-----------0-------------------||
|-------0-----------0-----------0-|-----------0-----0-----------------||
|-----9-----------7-----------4---|---------4---------4---------------||
|---7-----------5-----------3-----|-------2-------------2-0-----------||
|-0-----------0-----------0-------|-----0-------------------3-2-0-0---||


 Interlude
  &
  G         Em7       Em          N.C.(E)           G     F#  N.C.
  E E E E E E E E E E E E E E E E   E E E E E E E E E E E E E E E E
|-----------3---------------------|---------------------------------|
|---------3---0---------------0---|---------------------------------|
|-------0-------0-----------0---0-|-----------0---------------------|
|-----0-----------0-------2-------|-0-----2-----2-------0-----------|
|---2---------------2---2---------|-----0---2-----2---2-----4-------|
|-3-------------------0-----------|---0-------------3-----2---3-2-0-|


  G         Em7       Em              Am            C   G
  E E E E E E E E E E E E E E E E   E E E E E E E E E E E E E E E E
|-----------3---------------------|---------------------------------|
|---------3---0---------------0---|---------1-----------------------|
|-------0-------0-----------0---0-|-------2---2---------------------|
|-----0-----------0-------2-------|-0---2-------2-----2-----0-------|
|---2---------------2---2---------|---0-------------3-----2---------|
|-3-------------------0-----------|---------------0-----3-----3-2-0-|


  D/B   Dsus2/G       Esus4         D/B   Dsus2/G         Em
  E E E E E E E E E E E E E E E E   E E E E E E E E E E E E E E E E
|---------------------------------|---------------------------------||
|-----------------------0---------|---------------------------------||
|-------------------------2-------|-----------------------------0---||
|-----0-----0-----0---2-----2-----|-----0-----0-----0---2-----2---2-||
|---9-----7-----2---0---------0---|---9-----7-----2---0-----2-------||
|-7-----5-----3-----------------0-|-7-----5-----3---------0---------||


 Guitar Solo
  D/B           Dsus2/A          G         Esus4
  Gtr II
                              ~~
                |-3-|
  S S S S +S  S S S S S S S a Q.       H..               S
|----------------------------------------------------------|
|----------------------------------------------------------|
|---4-5-7-(7)-5-4h5p4---4----------------------------------|
|-7-------------------7---5-5h7----------------------------|
|----------------------------------------------------------|
|----------------------------------------------------------|
|
| Gtr I
| E   E    E    E     E   E      E E E     E E E E E E E
|----------------------------------------------------------|
|----------------------------------------------0-----------|
|------------------------------------------------2---------|
|----------0--------------0----------0-------2-----2-------|
|-----9---------------7------------2-------0---------0-----|
|-7-------------5----------------3---------------------0---|


  D/B      Dsus2/A       G           Em
                             ~
  E S  S E S S a S S S S S S W               +E
|-------------------------------------------------|
|---8-10-8-7---3h5-3-----3------------------------|
|---7--9-7-7---------5-4---4----------------------|
|----------------------------5---------------(5)--|
|-------------------------------------------------|
|-------------------------------------------------|
|
| E E    E E     E   E   E   E E E E E E E E  E
|-------------------------------------------------|
|-------------------------------------------------|
|------------------------------------------0------|
|--------0-----------0---------0---2-----2----2---|
|---9------------7-----------2---0-----2----------|
|-7--------5-------------3-----------0------------|


  D/B             Dsus2/A    G            Esus4
                       ~   ~~~~~~     ~
    |--3--|
  S S S   S S S S  S S E S S +S  S  S H         S S S S S S S E
|---------------------------------------------------------------|
|-8-7h8p==7---7-8-10-7-8-7-8-(8)-8-10-7---------8-7---8-7---8-7-|
|-----------9---------------------------------------9-----9-----|
|---------------------------------------------------------------|
|---------------------------------------------------------------|
|---------------------------------------------------------------|
|
| E     E     E    E   E E    E     E   E E E E   E   E   E   E
|---------------------------------------------------------------|
|---------------------------------------------0-----------------|
|-------------------------------------------------2-------------|
|-------------0----------0--------------0---2---------2---------|
|-------9--------------7------------2-----0---------------0-----|
|-7----------------5----------3-------------------------------0-|


  D/B     Dsus2/A G                Em
  +H         E  H        S  S S  S S S S S S S S S S S
|-----------12-12-------12p10---10p8---7p5---7p5---5h7--|
|-(7)-------------------------8------7-----7-----5------|
|-------------------------------------------------------|
|-------------------------------------------------------|
|-------------------------------------------------------|
|-------------------------------------------------------|
|
|  E  E E E  E  E E E E  E    E    E   E   E   E   E
|-------------------------------------------------------|
|-------------------------------------------------------|
|----------------------------------------------0--------|
|-------0-------0-----0-------2------------2-------2----|
|-----9------7------2----0-------------2----------------|
|--7------5-------3----------------0--------------------|


  D/B   Dsus2/A           G                       Esus4
  H       T T T T T T T T T T T T T T T T T T T T T T T T T T T T T T T T T T T T T T T T T T T T E
|-5-------7p5-----7p5-----7p5-----7p5-----7p5-----7p5-----7p5-----7p5-----7p5-----7p5-----7p5-----7-|
|-------------7p5-----7p5-----7p5-----7p5-----7p5-----7p5-----7p5-----7p5-----7p5-----7p5-----7p5---|
|---------------------------------------------------------------------------------------------------|
|---------------------------------------------------------------------------------------------------|
|---------------------------------------------------------------------------------------------------|
|---------------------------------------------------------------------------------------------------|
|
| E E E E E       E       E       E       E       E       E       E       E       E       E       E
|---------------------------------------------------------------------------------------------------|
|-----------------------------------------------------------------0---------------------------------|
|-------------------------------------------------------------------------2-------------------------|
|-----0-----------0-----------------------0---------------2-----------------------2-----------------|
|---9-----7-----------------------2---------------0---------------------------------------0---------|
|-7-----5-----------------3-----------------------------------------------------------------------0-|


  D/B                 Dsus2/A         G                 Em
  +E  T T T T T T T T T T T T S S S S S S S S S S S H          Q      +S
|-(7)-5p3-----5p3-----5p3-----5p3-----5p3-----5p3----------------------------|
|---------5p3-----5p3-----5p3-----5p3-----5p3-----5p3---------(3)-----(3)----|
|----------------------------------------------------------------------------|
|--------------------------------------------------------------2------(2)----|
|----------------------------------------------------------------------------|
|----------------------------------------------------------------------------|
|
|  E  E       E       E       E   E   E   E   E   E   E E E E     E E
|----------------------------------------------------------------------------|
|----------------------------------------------------------------------------|
|-----------------------------------------------------------------0----------|
|-------------0-------------------0-----------0-------2-----2-------2--------|
|-----9-----------------------7-----------2-------0-------2------------------|
|--7------------------5---------------3-----------------0--------------------|


  G5    E5
 4/4
  Gtr I
   H     H
|-------------||
|-------------||
|-------------||
|-^5----^2----||
|-^5----^2----||
|-^3----^0----||


 Verse
  Em      Dsus4/E Gmaj7susGmaj7/E   Em      Dsus4/E Gmaj7susGmaj7/E
 8/4
  E E E E E E E E E E E E E E E E   E E E E E E E E E E E E E E E E
|---------------------------------|----------------------------------|
|---------------------------------|----------------------------------|
|-------0-------0-------0-------0-|-------0-------0-------0-------0--|
|-----9-------7-------4-------4---|-----9-------7-------4-------4----|
|---7-------5-------3-------2-----|---7-------5-------3-------2------|
|-0-------0-------0-------0-------|-0-------0-------0-------0--------|


  Em          Em11        Cmaj7+11/E    Emadd9
  E E E E E E E E E E E E E E E E   E E E E E E E E E E E E E E E E
|---------0-----------0-----------|-0-----------0-------------------|
|-----------0-----------0---------|---0-----------0-----------------|
|-------0-----------0-----------0-|-----------0-----0---------------|
|-----9-----------7-----------4---|---------4---------4-------------|
|---7-----------5-----------3-----|-------2-------------2-0---------|
|-0-----------0-----------0-------|-----0-------------------3-2-0-0-|


  Em      Am      C         E           Em
  E E E E E E E E E E E E E E E E   E E E E E E E E E E E E E E E E
|-----------------0---------------|-----0-----------------0---------||
|---------------1---1-------------|---0---0-----------------0-------||
|-------0-----2-------0-----------|-1-------0-----------0-----0-----||
|-----2-----2-----------2-------2-|-----------2-------9---------2---||
|---2-----0---------------3---2---|-------------2---7-------------2-||
|-0-------------------------0-----|---------------0-----------------||


 Out-Chorus
  E5        G5                    E5
   W         W           W         W
|---------------------|-----------------*|
|---------------------|-----------------*|
|---------------------|-----------------*|
|-^2--------^5--------|-^5--------^2----*|
|-^2--------^5--------|-^5--------^2----*|
|-^0--------^3--------|-^3--------^0----*|


Duration Legend
---------------
W - whole; H - half; Q - quarter; E - 8th; S - 16th; T - 32nd; X - 64th; a - acciaccatura
+ - note tied to previous; . - note dotted; .. - note double dotted
Uncapitalized letters represent notes that are staccato (1/2 duration)
Irregular groupings are notated above the duration line
Duration letters will always appear directly above the note/fret number it represents the
duration for.  Duration letters with no fret number below them represent rests.  Multi-
bar rests are notated in the form Wxn, where n is the number of bars to rest for.  Low
melody durations appear below the staff

Tablature Legend
----------------
 h   - hammer-on
 p   - pull-off
 b   - bend
 pb  - pre-bend
 r   - bend release (if no number after the r, then release immediately)
 /\  - slide into or out of (from/to "nowhere")
 s   - legato slide
 S   - shift slide
  - natural harmonic
[n]  - artificial harmonic
n(n) - tapped harmonic
 ~   - vibrato
 tr  - trill
 T   - tap
 TP  - trem. picking
 PM  - palm muting
\n/  - tremolo bar dip; n = amount to dip
 \n  - tremolo bar down
 n/  - tremolo bar up
/n\  - tremolo bar inverted dip
 =   - hold bend; also acts as connecting device for hammers/pulls
 <>  - volume swell (louder/softer)
 x   - on rhythm slash represents muted slash
 o   - on rhythm slash represents single note slash

Misc Legend
-----------
 |  - bar
||  - double bar
||o - repeat start
o|| - repeat end
*|  - double bar (ending)
 :  - bar (freetime)
 $  - Segno
 &  - Coda
Tempo markers -  = BPM(8/16=s8/s16), where s8 = swing 8ths, s16 = swing 16ths


***************************************************************************************
* Generated using Power Tab Editor by Brad Larsen - http://powertab.guitarnetwork.org *
***************************************************************************************
Suggest correction
Give kudos to tab author, rate the tab!
1 2 3 4 5
comments
print report bad tab
guest
You may want to rate the tab now too:
select rating
Please do not post tabs as comments. Select "correction" instead!