Oops, an error
Loading. Please wait.

Gannon Bracewell - I Broke My G-String Tab

92 views 1 this week
no commentswrite comment
1 2 3 4 5
please rate
add to favorites
launch autoscroll
font size
0
reset
how to read this tab
guitar tuner
Autoscroll
slow
fast
+/-
esc
set tempo
stop
Help us to improve Ultimate-Guitar.com Take our survey!
×
Contributor
#----------------------------------PLEASE NOTE---------------------------------#
#This file is the author's own work and represents their interpretation of the #
#song. You may only use this file for private study, scholarship, or research. #
#------------------------------------------------------------------------------##

                              I BROKE MY G STRING!!
                         As recorded by Gannon Bracewell
                     (From the 2010 Album GANNON BRACEWELL)

Words and Music by Gannon Bracewell
Arranged by Gannon Bracewell
Transcribed by Gannon Bracewell

          G5                   F5
      3 5 5 x x x          1 3 3 x x x

Gtr I (E A D G B E) - 'Lead'
Gtr II (E A D G B E) - 'Rythem'

 Intro
  Q=148
  G5
 4/4
  Gtr II
  W                                     +W
  |                                      |
  /                                      /

  Gtr I
  S S S S  S  S S S S S  S  S S S S S    S  S S S S S  S  S S S S S  S  S S S
|-------------------------------------|----------------------------------------|
|-------------------------------------|----------------------------------------|
|-0-0-0-0-10-12-0-0-0-0-10-12-0-0-0-0-|-10-12-0-0-0-0-13-12-0-0-0-0-10-12-0-0--|
|-------------------------------------|----------------------------------------|
|-------------------------------------|----------------------------------------|
|-------------------------------------|----------------------------------------|


  W                                      W
                                         |
                                         /

  S S  S  S S S S S  S  S S S S S  S S   S S S S  S  S S S S S  S  S S S S S
|--------------------------------------|--------------------------------------|
|--------------------------------------|--------------------------------------|
|-0-0-10-12-0-0-0-0-10-12-0-0-0-0-10-8-|-0-0-0-0-10-12-0-0-0-0-10-12-0-0-0-0--|
|--------------------------------------|--------------------------------------|
|--------------------------------------|--------------------------------------|
|--------------------------------------|--------------------------------------|


                                          F5
  +W                                      W
   |                                      |
   /                                      /

   S  S S S S S  S  S S S S S  S  S S S   S S  S S S S S S S S S S S S S S
|---------------------------------------|-----------------------------------||
|---------------------------------------|-----------------------------------||
|-10-12-0-0-0-0-13-12-0-0-0-0-12-10-0-0-|-0-0-10-8-0-0-0-0-8-7-0-0-0-0-7-5--||
|---------------------------------------|-----------------------------------||
|---------------------------------------|-----------------------------------||
|---------------------------------------|-----------------------------------||


 .
  G5
  Gtr I
                                                    ~~~
   W                   E     E     E     E     +E   Q.
|-------------------|-------------------------------------|
|-------------------|-------------------------------------|
|-22b24-------------|-22b24-22b24-22b24-22b24r(22)-22-----|
|-------------------|-------------------------------------|
|-------------------|-------------------------------------|
|-------------------|-------------------------------------|
|
| Gtr II
|        PM----|                   PM--------------|
|  Q     E E E E Q     Q           E     E      E   E  Q
|-------------------|-------------------------------------|
|-------------------|-------------------------------------|
|-------------------|-------------------------------------|
|--5-------------5--|--5-------------------------------5--|
|--5-------------5--|--5-------------------------------5--|
|--3-----3-3-3-3-3--|--3-----------3-----3------3---3--3--|


  F5
   S     +S   S  S  S  S  S  S  S  S  S  S  S  S  S  S
|--------------------------------------------------------|
|--------------------------------------------------------|
|-22b25r(22)-20p18p17p15-15h17p15h17p15h17h18p17h18p15---|
|--------------------------------------------------------|
|--------------------------------------------------------|
|--------------------------------------------------------|
|
|                   PM---------------|
|  Q                E     E     E     E     Q
|--------------------------------------------------------|
|--------------------------------------------------------|
|--------------------------------------------------------|
|--3----------------------------------------3------------|
|--3----------------------------------------3------------|
|--1----------------1-----1-----1-----1-----1------------|


   S  S  S  S  S  S  S  S  S  S S S Q
|--------------------------------------|
|--------------------------------------|
|-18p17p15h17p15p13p12p10h12p10p8p7-7--|
|--------------------------------------|
|--------------------------------------|
|--------------------------------------|
|
|              PM---------------|
|  Q           E     E     E    E   Q
|--------------------------------------|
|--------------------------------------|
|--------------------------------------|
|--3--------------------------------3--|
|--3--------------------------------3--|
|--1-----------1-----1-----1----1---1--|


  |-3-|  |--3--|  |--3--|  |--3--|  |--3--|  |--3--|  |--3--|  |--3--|
  S S S  S  S  S  S  S  S  S  S  S  S  S  S  S  S  S  S  S  S  S  S  S
|-----------------------------------------------------------------------|
|-----------------------------------------------------------------------|
|-7h8p7h10h12p10h12h13p12h15p13h15h17p15h17h18p17h18p15h17p15p13h15p13--|
|-----------------------------------------------------------------------|
|-----------------------------------------------------------------------|
|-----------------------------------------------------------------------|
|
| E      E        E        E        E        E        E        E
|-----------------------------------------------------------------------|
|-----------------------------------------------------------------------|
|-----------------------------------------------------------------------|
|-3------3--------3--------3--------3--------3--------3--------3--------|
|-3------3--------3--------3--------3--------3--------3--------3--------|
|-1------1--------1--------1--------1--------1--------1--------1--------|


   |--3--|  |--3--| |-3--| |-3-| |-3-| |-3-| |--3--|
   S  S  S  S  S  S S  S S S S S S S S S S S E E   E
|-----------------------------------------------------||
|-----------------------------------------------------||
|-12h13p12p10h12p10p8h10p8p7h8p7p5h7p5p3h5p3p0h3p==0--||
|-----------------------------------------------------||
|-----------------------------------------------------||
|-----------------------------------------------------||
|
|  E        E       E      E     E     E     E   E
|-----------------------------------------------------||
|-----------------------------------------------------||
|-----------------------------------------------------||
|--3--------3-------3------3-----3-----3-----3---3----||
|--3--------3-------3------3-----3-----3-----3---3----||
|--1--------1-------1------1-----1-----1-----1---1----||


 .
  G5
  Q  E E E E Q    Q  E E E E E E   E E E E E E E E   W
|---------------|----------------|-----------------|----------------|
|---------------|----------------|-----------------|----------------|
|-0--0-0-0-0-0--|-0--0-3-0-3-0-5-|-3-5-3-0-3-0-3-5-|-0--------------|
|---------------|----------------|-----------------|----------------|
|---------------|----------------|-----------------|----------------|
|---------------|----------------|-----------------|----------------|
|
|    PM----|         PM----|           PM----|          PM----|
| Q  E E E E Q    Q  E E E E Q     Q   E E E E Q     Q  E E E E Q
|---------------|----------------|-----------------|----------------|
|---------------|----------------|-----------------|----------------|
|---------------|----------------|-----------------|----------------|
|-5----------5--|-5----------5---|-5-----------5---|-5----------5---|
|-5----------5--|-5----------5---|-5-----------5---|-5----------5---|
|-3--3-3-3-3-3--|-3--3-3-3-3-3---|-3---3-3-3-3-3---|-3--3-3-3-3-3---|


                                      Interlude
                                    H=H
                                       Ab5 G5  Ab5 G5    Ab5 G5  Ab5 G5
  +W                +W                  q   q   q   q     q   q   q   q
|-----------------|-----------------||-----------------|------------------|
|-----------------|-----------------||-----------------|------------------|
|-(0)-------------|-(0)-------------||-13--12--13--12--|-13--12--13--12---|
|-----------------|-----------------||-----------------|------------------|
|-----------------|-----------------||-----------------|------------------|
|-----------------|-----------------||-----------------|------------------|
|
|      PM----|           PM----|
|  Q   E E E E Q     Q   E E E E Q      q   q   q   q     q   q   q   q
|-----------------|-----------------||-----------------|------------------|
|-----------------|-----------------||-----------------|------------------|
|-----------------|-----------------||-----------------|------------------|
|--5-----------5--|--5-----------5--||--6---5---6---5--|--6---5---6---5---|
|--5-----------5--|--5-----------5--||--6---5---6---5--|--6---5---6---5---|
|--3---3-3-3-3-3--|--3---3-3-3-3-3--||--4---3---4---3--|--4---3---4---3---|


                                                                       Q=250
  Ab5 G5  Ab5 G5    Ab5 G5  Ab5 G5    Ab5 G5  Ab5 G5    Ab5 G5  Ab5 G5
   q   q   q   q     q   q   q   q     q   q   q   q     q   q   q   q
|-----------------|-----------------|-----------------|------------------|
|-----------------|-----------------|-----------------|------------------|
|-13--12--13--12--|-13--12--13--12--|-13--12--13--12--|-13--12--13--12---|
|-----------------|-----------------|-----------------|------------------|
|-----------------|-----------------|-----------------|------------------|
|-----------------|-----------------|-----------------|------------------|
|
|  q   q   q   q     q   q   q   q     q   q   q   q     q   q   q   q
|-----------------|-----------------|-----------------|------------------|
|-----------------|-----------------|-----------------|------------------|
|-----------------|-----------------|-----------------|------------------|
|--6---5---6---5--|--6---5---6---5--|--6---5---6---5--|--6---5---6---5---|
|--6---5---6---5--|--6---5---6---5--|--6---5---6---5--|--6---5---6---5---|
|--4---3---4---3--|--4---3---4---3--|--4---3---4---3--|--4---3---4---3---|


  H=H                                                                  Q=300
  Ab5 G5  Ab5 G5    Ab5 G5  Ab5 G5    Ab5 G5  Ab5 G5    Ab5 G5  Ab5 G5
   q   q   q   q     q   q   q   q     q   q   q   q     q   q   q   q
|-----------------|-----------------|-----------------|------------------|
|-----------------|-----------------|-----------------|------------------|
|-13--12--13--12--|-13--12--13--12--|-13--12--13--12--|-13--12--13--12---|
|-----------------|-----------------|-----------------|------------------|
|-----------------|-----------------|-----------------|------------------|
|-----------------|-----------------|-----------------|------------------|
|
|  q   q   q   q     q   q   q   q     q   q   q   q     q   q   q   q
|-----------------|-----------------|-----------------|------------------|
|-----------------|-----------------|-----------------|------------------|
|-----------------|-----------------|-----------------|------------------|
|--6---5---6---5--|--6---5---6---5--|--6---5---6---5--|--6---5---6---5---|
|--6---5---6---5--|--6---5---6---5--|--6---5---6---5--|--6---5---6---5---|
|--4---3---4---3--|--4---3---4---3--|--4---3---4---3--|--4---3---4---3---|


  Ab5G5 Ab5G5 Ab5G5 Ab5G5   Ab5G5 Ab5G5 Ab5G5 Ab5G5
   E  E  E  E  E  E  E  E    E  E  E  E  E  E  E  E
|-------------------------|-------------------------|
|-------------------------|-------------------------|
|-13p12h13p12h13p12h13p12h|=13p12h13p12h13p12h13p12h|
|-------------------------|-------------------------|
|-------------------------|-------------------------|
|-------------------------|-------------------------|
|
|  E  E  E  E  E  E  E  E    E  E  E  E  E  E  E  E
|-------------------------|-------------------------|
|-------------------------|-------------------------|
|-------------------------|-------------------------|
|--6--5--6--5--6--5--6--5-|--6--5--6--5--6--5--6--5-|
|--6--5--6--5--6--5--6--5-|--6--5--6--5--6--5--6--5-|
|--4--3--4--3--4--3--4--3-|--4--3--4--3--4--3--4--3-|


  Ab5G5 Ab5G5 Ab5G5 Ab5G5
   E  E  E  E  E  E  E  E
|--------------------------||
|--------------------------||
|-13p12h13p12h13p12h13p12--||
|--------------------------||
|--------------------------||
|--------------------------||
|
|  E  E  E  E  E  E  E  E
|--------------------------||
|--------------------------||
|--------------------------||
|--6--5--6--5--6--5--6--5--||
|--6--5--6--5--6--5--6--5--||
|--4--3--4--3--4--3--4--3--||


 Outro
  Q=148
  Gtrs I, II
  W
|------*|
|------*|
|------*|
|-5----*|
|-5----*|
|-3----*|


Duration Legend
---------------
W - whole; H - half; Q - quarter; E - 8th; S - 16th; T - 32nd; X - 64th; a - acciaccatura
+ - note tied to previous; . - note dotted; .. - note double dotted
Uncapitalized letters represent notes that are staccato (1/2 duration)
Irregular groupings are notated above the duration line
Duration letters will always appear directly above the note/fret number it represents the
duration for.  Duration letters with no fret number below them represent rests.  Multi-
bar rests are notated in the form Wxn, where n is the number of bars to rest for.  Low
melody durations appear below the staff

Tablature Legend
----------------
 h   - hammer-on
 p   - pull-off
 b   - bend
 pb  - pre-bend
 r   - bend release (if no number after the r, then release immediately)
 /\  - slide into or out of (from/to "nowhere")
 s   - legato slide
 S   - shift slide
  - natural harmonic
[n]  - artificial harmonic
n(n) - tapped harmonic
 ~   - vibrato
 tr  - trill
 T   - tap
 TP  - trem. picking
 PM  - palm muting
\n/  - tremolo bar dip; n = amount to dip
 \n  - tremolo bar down
 n/  - tremolo bar up
/n\  - tremolo bar inverted dip
 =   - hold bend; also acts as connecting device for hammers/pulls
 <>  - volume swell (louder/softer)
 x   - on rhythm slash represents muted slash
 o   - on rhythm slash represents single note slash

Misc Legend
-----------
 |  - bar
||  - double bar
||o - repeat start
o|| - repeat end
*|  - double bar (ending)
 :  - bar (freetime)
 $  - Segno
 &  - Coda
Tempo markers -  = BPM(8/16=s8/s16), where s8 = swing 8ths, s16 = swing 16ths


***************************************************************************************
* Generated using Power Tab Editor by Brad Larsen - http://powertab.guitarnetwork.org *
***************************************************************************************
comments
We did not receive enough feedback on this tab! Please rate:
print report bad tab
1 2 3 4 5
I want to post or [tab]
guest
You may want to rate the tab now too:
select rating
Please do not post tabs as comments. Select "correction" instead!