Oops, an error
Loading. Please wait.

Gannon Bracewell - Kill Em All Tab

version 1
version 1

Whole song

Interactive

94 views 1 this week
no commentswrite comment
1 2 3 4 5
please rate
add to favorites
launch autoscroll
font size
0
reset
how to read this tab
guitar tuner
Autoscroll
slow
fast
+/-
esc
set tempo
stop
Help us to improve Ultimate-Guitar.com Take our survey!
×
Contributor
Tuning
C F A# D# G C
#----------------------------------PLEASE NOTE---------------------------------#
#This file is the author's own work and represents their interpretation of the #
#song. You may only use this file for private study, scholarship, or research. #
#------------------------------------------------------------------------------##

                                   KILL EM ALL
                         As recorded by Gannon Bracewell

Music by Gannon Bracewell
Arranged by Gannon Bracewell
Transcribed by Gannon Bracewell

Gtr I (C F Bb Eb G C) - 'Lead'
Gtr II (C F Bb Eb G C) - 'Rythem'
Gtr III (E A D G B E) - 'Choir'
Gtr IV (C F Bb Eb G C) - 'Lead 2'

 Intro
  Q=100
 4/4
  Gtr III
   W           +W            +W            +W
|--0--------|--(0)--------|--(0)--------|--(0)----|
|--5--------|--(5)--------|--(5)--------|--(5)----|
|--9--------|--(9)--------|--(9)--------|--(9)----|
|-14--------|-(14)--------|-(14)--------|-(14)----|
|-19--------|-(19)--------|-(19)--------|-(19)----|
|-24--------|-(24)--------|-(24)--------|-(24)----|


                                                  1.
    E5                G5         E5                F5
    Gtrs I, IV
    E E E E E E E E   W          E E E E E E E E   W
||------------------|----------|-----------------|-------||
||o-----------------|----------|-----------------|------o||
||------------------|----------|-----------------|-------||
||--2-2---2-2---2-2-|-5--------|-2-2---2-2---2-2-|-3-----||
||o-2-2---2-2---2-2-|-5--------|-2-2---2-2---2-2-|-3----o||
||--0-0---0-0---0-0-|-3--------|-0-0---0-0---0-0-|-1-----||


  2.ightly Faster Q=115
  E5
  S S Q  S S Q  S S E   S S Q  S S Q  S S E
|---------------------|---------------------|
|---------------------|---------------------|
|---------------------|---------------------|
|-2-2----2-2----2-2---|-2-2----2-2----2-2---|
|-2-2----2-2----2-2---|-2-2----2-2----2-2---|
|-0-0----0-0----0-0---|-0-0----0-0----0-0---|


  PM------------|
  S S S S S S S S S S S S S S S S
|----------------------------------||
|----------------------------------||
|----------------------------------||
|-----------------2-2-2-2-2-2-2-2--||
|---------2-2-2-2-2-2-2-2-2-2-2-2--||
|-0-0-0-0-0-0-0-0-0-0-0-0-0-0-0-0--||


 Pre-Verse
  Q=160
  $
              N.C.                      E5            N.C.
                |-3-| |-3-| |-3-|                     |-3-| |-3-| |-3-|
  q  q  q  q    E E E E E E E E E E E   q  q  q  q    E E E E E E E E E E E
|-------------|-----------------------|-------------|-----------------------||
|-------------|-----------------------|-------------|-----------------------||
|-------------|-4-2-0-----------------|-------------|-4-2-0-----------------||
|-2--2--2--2--|-------4-2-0-----------|-2--2--2--2--|-------4-2-0-----------||
|-2--2--2--2--|-------------4-2-0-----|-2--2--2--2--|-------------4-2-0-----||
|-0--0--0--0--|-------------------1-3-|-0--0--0--0--|-------------------1-3-||


   Verse
    E5            N.C.
                  |-3-| |-3-| |-3-|
    q  q  q  q    E E E E E E E E E E E
||--------------|------------------------||
||o-------------|-----------------------o||
||--------------|-4-2-0------------------||
||--2--2--2--2--|-------4-2-0------------||
||o-2--2--2--2--|-------------4-2-0-----o||
||--0--0--0--0--|-------------------1-3--||


 Pre-Chorus
  $$
  F5         E5                       N.C.
  Gtr I
                                      |-3-| |-3-| |-3-|
  W          W          q  q  q  q    E E E E E E E E E E E
|----------|----------|-------------|------------------------|
|----------|----------|-------------|------------------------|
|----------|----------|-------------|-4-2-0------------------|
|-3--------|-2--------|-2--2--2--2--|-------4-2-0------------|
|-3--------|-2--------|-2--2--2--2--|-------------4-2-0------|
|-1--------|-0--------|-0--0--0--0--|-------------------1-3--|
|
| Gtr IV
|                                     |-3-| |-3-| |-3-|
| W          W          q  q  q  q    E E E E E E E E E E E
|----------|----------|-------------|------------------------|
|----------|----------|-------------|-3-1-0------------------|
|----------|----------|-------------|-------2-1--------------|
|-3--------|-2--------|-2--2--2--2--|-----------2-1-0--------|
|-3--------|-2--------|-2--2--2--2--|-----------------4-0-2--|
|-1--------|-0--------|-0--0--0--0--|------------------------|


                               To Dbl. Coda
  F5         E5         G5         E5
  Gtrs I, IV
  W          W          W          W
|----------|----------|----------|----------||
|----------|----------|----------|----------||
|----------|----------|----------|----------||
|-3--------|-2--------|-5--------|-2--------||
|-3--------|-2--------|-5--------|-2--------||
|-1--------|-0--------|-3--------|-0--------||


 Chorus
  F#5        A5         A#5        A5
  W          W          W          W
|----------|----------|----------|------|
|----------|----------|----------|------|
|----------|-2--------|-3--------|-2----|
|-4--------|-2--------|-3--------|-2----|
|-4--------|-0--------|-1--------|-0----|
|-2--------|----------|----------|------|


                                       D.S.
  G5         F#5        F5         E5
  W          W          W          W
|----------|----------|----------|----------||
|----------|----------|----------|----------||
|----------|----------|----------|----------||
|-5--------|-4--------|-3--------|-2--------||
|-5--------|-4--------|-3--------|-2--------||
|-3--------|-2--------|-1--------|-0--------||


 Interlude
  Q=210
  E5   G5     N.C.
            Gtr I
  H    H      E E E E E E E E    E E E E E E E E
|-----------|-9-----9-----9---|-10---9-----9-----|
|-----------|---7-7---7-7---7-|----7---7-7---7-7-|
|-----------|-----------------|------------------|
|-2----5----|-----------------|------------------|
|-2----5----|-----------------|------------------|
|-0----3----|-----------------|------------------|
|
|           Gtr IV
| W           E E E E E E E E    E E E E E E E E
|-----------|-----------------|------------------|
|-----------|-7-----7-----7---|--8---7-----7-----|
|-----------|---6-6---6-6---6-|----6---6-6---6-6-|
|-----------|-----------------|------------------|
|-----------|-----------------|------------------|
|-----------|-----------------|------------------|


  E E  E E E E E E   E E E E  E E E E   E E E E E E  E E
|-9---10---9-----9-|-----9---10---9---|---9-----9---10----|
|---7----7---7-7---|-7-7---7----7---7-|-7---7-7---7----7--|
|------------------|------------------|-------------------|
|------------------|------------------|-------------------|
|------------------|------------------|-------------------|
|------------------|------------------|-------------------|
|
| E E  E E E E E E   E E E E  E E E E   E E E E E E  E E
|------------------|------------------|-------------------|
|-7----8---7-----7-|-----7----8---7---|---7-----7----8----|
|---6----6---6-6---|-6-6---6----6---6-|-6---6-6---6----6--|
|------------------|------------------|-------------------|
|------------------|------------------|-------------------|
|------------------|------------------|-------------------|


  Q=150
  E5                G5 E5                F5 E5                A5
  Gtrs I, IV
  PM------------|      PM--------------|    PM--------------|
  E E E E E E E E   Q  E E E E E E   E E Q  E E E E   E E E E H
|-----------------|----------------|----------------|--------------|
|-----------------|----------------|----------------|--------------|
|-----------------|----------------|----------------|---------2----|
|-----------------|-5--------------|-----3----------|---------2----|
|-2-2-2-2-2-2-2-2-|-5--2-2-2-2-2-2-|-2-2-3--2-2-2-2-|-2-2-2-2-0----|
|-0-0-0-0-0-0-0-0-|-3--0-0-0-0-0-0-|-0-0-1--0-0-0-0-|-0-0-0-0------|


  E5                G5 E5                F5 E5                A5
  PM------------|      PM--------------|    PM--------------|
  E E E E E E E E   Q  E E E E E E   E E Q  E E E E   E E E E H
|-----------------|----------------|----------------|--------------|
|-----------------|----------------|----------------|--------------|
|-----------------|----------------|----------------|---------2----|
|-----------------|-5--------------|-----3----------|---------2----|
|-2-2-2-2-2-2-2-2-|-5--2-2-2-2-2-2-|-2-2-3--2-2-2-2-|-2-2-2-2-0----|
|-0-0-0-0-0-0-0-0-|-3--0-0-0-0-0-0-|-0-0-1--0-0-0-0-|-0-0-0-0------|


  C5                      E5                      D5
                                          PM----|
  W          +W           E H    Q  E     E E E E H
|----------|------------|-------------||---------------|
|----------|------------|-------------||o--------------|
|-5--------|-(5)--------|-------------||----------7----|
|-5--------|-(5)--------|-2-----------||----------7----|
|-3--------|-(3)--------|-2-----------||o---------5----|
|----------|------------|-0-----------||--0-0-0-0------|


            E5               B5     N.C.
  PM|                PM----|                ~
  E E E S S E Q.     E E E E H      E E E E H
|------------------|--------------|---------------||
|------------------|--------------|--------------o||
|-------7-7-9-9\---|---------4----|---------------||
|-------7-7-9-9\---|---------4----|---------------||
|-5-5---5-5-7-7\---|-3-3-3-3-2----|-5-----6-7----o||
|------------------|--------------|---8-7---------||


 Guitar Solo
          D5                     E5                     B5
  Gtrs I, IV
                                      |-3-|
  E E E E Q  E +E      E E Q     E E  S S S E   Q   E E E E E E
|--------------------|------------------------|---------3-7-----|
|--------------------|-----------5-6--5h6p5---|-5-----5-----8---|
|-4-5-4---4--5-(5)b7-|-5-4-5----------------7-|-----5---------9-|
|-------7------------|------------------------|-----------------|
|--------------------|------------------------|-----------------|
|--------------------|------------------------|-----------------|
|
| Gtr II
| PM----|              PM|                      PM----|
| E E E E H            E E E S S E Q.           E E E E H
|--------------------|------------------------|-----------------|
|--------------------|------------------------|-----------------|
|---------7----------|-------7-7-9-9\---------|---------4-------|
|---------7----------|-------7-7-9-9\---------|---------4-------|
|---------5----------|-5-5---5-5-7-7\---------|-3-3-3-3-2-------|
|-0-0-0-0------------|------------------------|-----------------|


             D5                    E5                   B5
   E  E  E E  Q  E E   E E  E  E    H         +H         +Q   E  E
|--------------------|-5-8-----------------|-----------------------|
|------------------7-|-----10--------------|-----------------------|
|-11-12-11-9-11--8---|--------11---12------|-(12)-------(12)--9-11-|
|--------------------|---------------------|-----------------------|
|--------------------|---------------------|-----------------------|
|--------------------|---------------------|-----------------------|
|
|  PM------|           PM|                     PM-----|
|  E  E  E E  H        E E  E  S S  E Q.       E  E E E   H
|--------------------|---------------------|-----------------------|
|--------------------|---------------------|-----------------------|
|-------------7------|---------7-7--9-9\---|--------------4--------|
|-------------7------|---------7-7--9-9\---|--------------4--------|
|-------------5------|-5-5-----5-5--7-7\---|---3--3-3-3---2--------|
|--0--0--0-0---------|---------------------|-----------------------|


  N.C.                                                            D5
                                                               ~~~
   +Q        E  +E      E  E     E  E    +Q        +S.  S   S  Q.     +T  S S
|-------------------------------------|----------------------------------------|
|-------------------------------------|----------------------------------------|
|-(11)b12r==11-(11)b12-11-11b12-11-11-|-(11)b12r==(11)-11p==9---------------8--|
|-------------------------------------|-----------------------10-----(10)-9----|
|-------------------------------------|----------------------------------------|
|-------------------------------------|----------------------------------------|
|
|                       ~~                PM--------------|
|   E     E  E   E      H                 E     E   E     E       H
|-------------------------------------|----------------------------------------|
|-------------------------------------|----------------------------------------|
|-------------------------------------|---------------------------7------------|
|-------------------------------------|---------------------------7------------|
|---5------------6------7-------------|---------------------------5------------|
|---------8--7------------------------|---0-----0---0-----0--------------------|


         D5                        E5
          ~~~                      ~~
                         |-3-|
  E E  E  Q.    E  E   E S S S E   H         S  S
|--------------------|-------------------------12-|
|-7-8-10-10----12-10-|-8-7h8p7-8-----------/12----|
|--------------------|-------------9\-------------|
|--------------------|----------------------------|
|--------------------|----------------------------|
|--------------------|----------------------------|
|
| PM--|            PM--|                     PM----
| E E  E  H        E   E E     S S E  Q.     E
|--------------------|----------------------------|
|--------------------|----------------------------|
|---------7----------|---------7-7-9--9\----------|
|---------7----------|---------7-7-9--9\----------|
|---------5--------5-|-5-------5-5-7--7\-----3----|
|-0-0--0-------------|----------------------------|


            B5            N.C.
                                                            ~~~
                                                |--3--|
   H           E  E     E  E       +E      +E   S  S  S  E  Q.   S S
|-14b15-------14-14b15-14-14b15-|-(14)b15r(14)-12h14p12----------------|
|-------------------------------|-----------------------13-13----------|
|-------------------------------|----------------------------------8---|
|-------------------------------|--------------------------------9-----|
|-------------------------------|--------------------------------------|
|-------------------------------|--------------------------------------|
|
|---------|                                              ~~
|  E    E E H              E        E       E   Q        H
|-------------------------------|--------------------------------------|
|-------------------------------|--------------------------------------|
|-----------4-------------------|--------------------------------------|
|-----------4-------------------|--------------------------------------|
|--3----3-3-2--------------5----|---------------6--------7-------------|
|-------------------------------|---8-------7--------------------------|


                 D5                                      E5
   S S S  S S  S S S S S  S S S  S E    S  S  S  S  S  S  S  S  S   S  S  S  S  S  S  S
|-10-8-7----8-10-8-7-8-7-10-8-7------|-------------------15--------15-15----15-17-18-15-|
|--------10---------------------10-8-|-15-17-18-15-17-18----17-18--------18-------------|
|------------------------------------|--------------------------------------------------|
|------------------------------------|--------------------------------------------------|
|------------------------------------|--------------------------------------------------|
|------------------------------------|--------------------------------------------------|
|
|  PM-------|                      PM--|                                           PM----
|  E   E    E    H                 E    E     E     S  S  E     Q.                 E
|------------------------------------|--------------------------------------------------|
|------------------------------------|--------------------------------------------------|
|----------------7-------------------|--------------7--7--9-----9\----------------------|
|----------------7-------------------|--------------7--7--9-----9\----------------------|
|----------------5-----------------5-|--5-----------5--5--7-----7\-----------------3----|
|--0---0----0------------------------|--------------------------------------------------|


           B5          N.C.
                             ~~
   E  E  E  E  E  E  E  E    W
|-17----15----------------|-------------||
|----18----17-18-15-17-14-|-15----------||
|-------------------------|-------------||
|-------------------------|-------------||
|-------------------------|-------------||
|-------------------------|-------------||
|
|-------|                          ~
|  E  E  E  H           E    E E Q H
|-------------------------|-------------||
|-------------------------|-------------||
|-----------4-------------|-------------||
|-----------4-------------|-------------||
|--3--3--3--2-----------5-|------6-7----||
|-------------------------|--8-7--------||


   Dual Guitar Solo
    E5
    Gtr I
     S S  S S  S S  S S  S  S  S  S  S  S  S  S
||--12-8--------------8-15-12----------------12-|
||o------10--------10---------13----------13----|
||----------9----9---------------12----12-------|
||------------10--------------------14----------|
||o---------------------------------------------|
||----------------------------------------------|
|
|   Gtr IV
|    S S  S S  S S  S S  S  S  S  S  S  S  S  S
||---8-5--------------5-12--8-----------------8-|
||o-------6---------6---------10----------10----|
||----------5----5----------------9-----9-------|
||-------------7--------------------10----------|
||o---------------------------------------------|
||----------------------------------------------|
|
|   Gtr II
|    PM------------------------------------------
|    E    E    E    E    E     E     E     E
||----------------------------------------------|
||o---------------------------------------------|
||----------------------------------------------|
||----------------------------------------------|
||o--2----2----2----2----2-----2-----2-----2----|
||---0----0----0----0----0-----0-----0-----0----|


  G5
   E  S  S  S  S  S  S  S  S  S  S  S  S  S  S  4x
|-13----------------13-19-16----------------16--||
|----15----------15----------17----------17----o||
|-------14----14----------------16----16--------||
|----------15----------------------18-----------||
|----------------------------------------------o||
|-----------------------------------------------||
|
|  E  S  S  S  S  S  S  S  S  S  S  S  S  S  S  4x
|-10----------------10-15-12----------------12--||
|----10----------10----------12----------12----o||
|-------10----10----------------13----13--------||
|----------12----------------------14-----------||
|----------------------------------------------o||
|-----------------------------------------------||
|
|----------------------------------------|
|  E  E     E     E     E     E     E     E     4x
|-----------------------------------------------||
|----------------------------------------------o||
|-----------------------------------------------||
|-----------------------------------------------||
|--5--5-----5-----5-----5-----5-----5-----5----o||
|--3--3-----3-----3-----3-----3-----3-----3-----||


 Breakdown
  Q=135
  E5
  Gtrs I, IV
  S S Q  S S Q  S S E   S S Q  S S Q  S S E   S S Q  S S Q  S S E
|---------------------|---------------------|---------------------|
|---------------------|---------------------|---------------------|
|---------------------|---------------------|---------------------|
|-2-2----2-2----2-2---|-2-2----2-2----2-2---|-2-2----2-2----2-2---|
|-2-2----2-2----2-2---|-2-2----2-2----2-2---|-2-2----2-2----2-2---|
|-0-0----0-0----0-0---|-0-0----0-0----0-0---|-0-0----0-0----0-0---|


  G5
  S S Q  S S Q  S S E   S S Q  S S Q  S S E   S S Q  S S Q  S S E
|---------------------|---------------------|---------------------|
|---------------------|---------------------|---------------------|
|---------------------|---------------------|---------------------|
|-5-5----5-5----5-5---|-5-5----5-5----5-5---|-5-5----5-5----5-5---|
|-5-5----5-5----5-5---|-5-5----5-5----5-5---|-5-5----5-5----5-5---|
|-3-3----3-3----3-3---|-3-3----3-3----3-3---|-3-3----3-3----3-3---|


  E5
  W          W
|----------|------|
|----------|------|
|----------|------|
|-2--------|------|
|-2--------|------|
|-0--------|------|


    E5                        D5
    PM|   PM|   PM|   PM|     PM|   PM|   PM|   PM|
    S S E S S E S S E S S E   S S E S S E S S E S S E
||--------------------------|-------------------------|
||o-------------------------|-------------------------|
||------9-----9-----9-----9-|-----7-----7-----7-----7-|
||------9-----9-----9-----9-|-----7-----7-----7-----7-|
||o-7-7-7-7-7-7-7-7-7-7-7-7-|-5-5-5-5-5-5-5-5-5-5-5-5-|
||--------------------------|-------------------------|


  C5                        D5
  PM|   PM|   PM|   PM|     PM|   PM|   PM|   PM|
  S S E S S E S S E S S E   S S E S S E S S E S S E
|-------------------------|----------------------------||
|-------------------------|---------------------------o||
|-----5-----5-----5-----5-|-----7-----7-----7-----7----||
|-----5-----5-----5-----5-|-----7-----7-----7-----7----||
|-3-3-3-3-3-3-3-3-3-3-3-3-|-5-5-5-5-5-5-5-5-5-5-5-5---o||
|-------------------------|----------------------------||


                   D.S.S. al Dbl. Coda
  E5
  W
|--------------------------------------||
|--------------------------------------||
|-9\-----------------------------------||
|-9\-----------------------------------||
|-7\-----------------------------------||
|--------------------------------------||


 Out-Chorus
  Q=160
  &&
  F#5        A5         A#5        A5
  W          W          W          W
|----------|----------|----------|------|
|----------|----------|----------|------|
|----------|-2--------|-3--------|-2----|
|-4--------|-2--------|-3--------|-2----|
|-4--------|-0--------|-1--------|-0----|
|-2--------|----------|----------|------|


  G5         F#5        F5         E5
  W          W          W          W
|----------|----------|----------|------|
|----------|----------|----------|------|
|----------|----------|----------|------|
|-5--------|-4--------|-3--------|-2----|
|-5--------|-4--------|-3--------|-2----|
|-3--------|-2--------|-1--------|-0----|


             G5         A5         B5
  W          W          W          W
|----------|----------|----------|------|
|----------|----------|----------|------|
|----------|----------|----------|------|
|-2--------|-5--------|-7--------|-9----|
|-2--------|-5--------|-7--------|-9----|
|-0--------|-3--------|-5--------|-7----|


  D5         E5         F#5
  W          W           W           W
|----------|----------|-----------|-------|
|----------|----------|-----------|-------|
|-7--------|-9--------|-11--------|-11----|
|-7--------|-9--------|-11--------|-11----|
|-5--------|-7--------|--9--------|--9----|
|----------|----------|-----------|-------|


  E5
  W
|------*|
|------*|
|------*|
|-2----*|
|-2----*|
|-0----*|


Duration Legend
---------------
W - whole; H - half; Q - quarter; E - 8th; S - 16th; T - 32nd; X - 64th; a - acciaccatura
+ - note tied to previous; . - note dotted; .. - note double dotted
Uncapitalized letters represent notes that are staccato (1/2 duration)
Irregular groupings are notated above the duration line
Duration letters will always appear directly above the note/fret number it represents the
duration for.  Duration letters with no fret number below them represent rests.  Multi-
bar rests are notated in the form Wxn, where n is the number of bars to rest for.  Low
melody durations appear below the staff

Tablature Legend
----------------
 h   - hammer-on
 p   - pull-off
 b   - bend
 pb  - pre-bend
 r   - bend release (if no number after the r, then release immediately)
 /\  - slide into or out of (from/to "nowhere")
 s   - legato slide
 S   - shift slide
  - natural harmonic
[n]  - artificial harmonic
n(n) - tapped harmonic
 ~   - vibrato
 tr  - trill
 T   - tap
 TP  - trem. picking
 PM  - palm muting
\n/  - tremolo bar dip; n = amount to dip
 \n  - tremolo bar down
 n/  - tremolo bar up
/n\  - tremolo bar inverted dip
 =   - hold bend; also acts as connecting device for hammers/pulls
 <>  - volume swell (louder/softer)
 x   - on rhythm slash represents muted slash
 o   - on rhythm slash represents single note slash

Misc Legend
-----------
 |  - bar
||  - double bar
||o - repeat start
o|| - repeat end
*|  - double bar (ending)
 :  - bar (freetime)
 $  - Segno
 &  - Coda
Tempo markers -  = BPM(8/16=s8/s16), where s8 = swing 8ths, s16 = swing 16ths


***************************************************************************************
* Generated using Power Tab Editor by Brad Larsen - http://powertab.guitarnetwork.org *
***************************************************************************************
comments
We did not receive enough feedback on this tab! Please rate:
print report bad tab
1 2 3 4 5
I want to post or [tab]
guest
You may want to rate the tab now too:
select rating
Please do not post tabs as comments. Select "correction" instead!