Oops, an error
Loading. Please wait.

Gannon Bracewell - No Name In The Desert Tab

104 views 1 this week
no commentswrite comment
1 2 3 4 5
please rate
add to favorites
launch autoscroll
font size
0
reset
how to read this tab
guitar tuner
Tab Pro tools
  • play this tab
  • loop segment
  • change instrument
  • show fretboard
  • metronome
×
Best way to learn
"Gannon Bracewell - No Name In The Desert"
Autoscroll
slow
fast
+/-
esc
set tempo
stop
Contributor
Difficulty
#----------------------------------PLEASE NOTE---------------------------------#
#This file is the author's own work and represents their interpretation of the #
#song. You may only use this file for private study, scholarship, or research. #
#------------------------------------------------------------------------------##

                             NO NAME (IN THE DESERT)
                         As recorded by Gannon Bracewell

Music by Gannon Bracewell
Arranged by Gannon Bracewell
Transcribed by Gannon Bracewell

Gtr I (E A D G B E) - 'Lead'
Gtr II (E A D G B E) - 'Rythem'

  Q=134
  $$
 4/4
  Gtr I
  Q  E E E E E E   +Q   E E E E E E   Q  E E E E E E   +Q   E E E E E E
|----------------|------------------|----------------|-------------------|
|----------------|------------------|----------------|-------------------|
|----------------|------------------|----------------|-------------------|
|--------2-0-----|------------------|--------2-0-----|-------------------|
|-0--0-0-----3-2-|-(2)--2-2-3-2-0---|-0--0-0-----3-2-|-(2)--2-2-3-2-0----|
|----------------|----------------3-|----------------|----------------3--|


  Q  E E E E E E   +Q   E E E E E E   E S S E E E E E E   S S E E E E E E E
|----------------|------------------|-------------------|-------------------||
|----------------|------------------|-------------------|-------------------||
|----------------|------------------|-------------------|-------------------||
|--------2-0-----|------------------|-----------2-0-----|-------------------||
|-0--0-0-----3-2-|-(2)--2-2-3-2-0---|-0-0-0-0-0-----3-2-|-2-2-2-2-2-3-2-0---||
|----------------|----------------3-|-------------------|-----------------3-||


   Verse 1 & 3 3rd repeat
    E S S E E E E E E   S S E E E E E E E
||--------------------|-------------------|
||o-------------------|-------------------|
||--------------------|-------------------|
||------------2-0-----|-------------------|
||o-0-0-0-0-0-----3-2-|-2-2-2-2-2-3-2-0---|
||--------------------|-----------------3-|
|
|   Gtr II
|   PM-------------------------------------
|   E E   E E E E E E   E E   E E E E E E
||--------------------|-------------------|
||o-------------------|-------------------|
||--------------------|-------------------|
||--2-2---2-2---------|-------------------|
||o-0-0---0-0-5-5-5-5-|-2-2---2-2-2-2-2-2-|
||------------3-3-3-3-|-0-0---0-0-0-0-0-0-|


  E S S E E E E E E   S S E E E E E E E   4x
|-------------------|---------------------||
|-------------------|--------------------o||
|-------------------|---------------------||
|-----------2-0-----|---------------------||
|-0-0-0-0-0-----3-2-|-2-2-2-2-2-3-2-0----o||
|-------------------|-----------------3---||
|
|-------------------------------------|
| E E   E E E E E E   E E   E E E E E E   4x
|-------------------|---------------------||
|-------------------|--------------------o||
|-------------------|---------------------||
|-2-2---2-2---------|---------------------||
|-0-0---0-0-5-5-5-5-|-2-2---2-2-2-2-2-2--o||
|-----------3-3-3-3-|-0-0---0-0-0-0-0-0---||


   Pre-Chorus
    $                                                         To Dbl. Coda
    Gtrs I, II
    E E E E E E E E   E E E E E E E E   E E E E E E E E   E E E E E E E E
||------------------|-----------------|-----------------|-------------------||
||o-----------------|-----------------|-----------------|------------------o||
||------------------|-----------------|-----------------|-------------------||
||--3-3-3-3s5-5-5-5s|=7-7-7-7-7-7-7-7s|=3-3-3-3s2-2-2-2s|=7-7-7-7s5-5-5-5---||
||o-3-3-3-3s5-5-5-5s|=7-7-7-7-7-7-7-7s|=3-3-3-3s2-2-2-2s|=7-7-7-7s5-5-5-5--o||
||--1-1-1-1s3-3-3-3s|=5-5-5-5-5-5-5-5s|=1-1-1-1s0-0-0-0s|=5-5-5-5s3-3-3-3---||


                    1st chorus
           To Coda
  Gtr I
  E E E E E E E E    E S S E E E E E E   S S E E E E E E E
|-----------------||-------------------|-------------------|
|-----------------||-------------------|-------------------|
|-----------------||-------------------|-------------------|
|-3-3-3-3s2-2-2-2-||-----------2-0-----|-------------------|
|-3-3-3-3s2-2-2-2-||-0-0-0-0-0-----3-2-|-2-2-2-2-2-3-2-0---|
|-1-1-1-1s0-0-0-0-||-------------------|-----------------3-|
|
| Gtr II
| E E E E E E E E    E E   E E E E E E   E E   E E E E E E
|-----------------||-------------------|-------------------|
|-----------------||-------------------|-------------------|
|-----------------||-------------------|-------------------|
|-3-3-3-3s2-2-2-2-||-2-2---2-2---------|-------------------|
|-3-3-3-3s2-2-2-2-||-0-0---0-0-5-5-5-5-|-2-2---2-2-2-2-2-2-|
|-1-1-1-1s0-0-0-0-||-----------3-3-3-3-|-0-0---0-0-0-0-0-0-|


  E S S E E E E E E   S S E E E E E E E
|-------------------|---------------------||
|-------------------|---------------------||
|-------------------|---------------------||
|-----------2-0-----|---------------------||
|-0-0-0-0-0-----3-2-|-2-2-2-2-2-3-2-0-----||
|-------------------|-----------------3---||
|
| E E   E E E E E E   E E   E E E E E E
|-------------------|---------------------||
|-------------------|---------------------||
|-------------------|---------------------||
|-2-2---2-2---------|---------------------||
|-0-0---0-0-5-5-5-5-|-2-2---2-2-2-2-2-2---||
|-----------3-3-3-3-|-0-0---0-0-0-0-0-0---||


   Verse 2 2nd repeat
    E S S E E E E E E   S S E E E E E E E
||--------------------|-------------------|
||o-------------------|-------------------|
||--------------------|-------------------|
||------------2-0-----|-------------------|
||o-0-0-0-0-0-----3-2-|-2-2-2-2-2-3-2-0---|
||--------------------|-----------------3-|
|
|   E E   E E E E E E   E E   E E E E E E
||--------------------|-------------------|
||o-------------------|-------------------|
||--------------------|-------------------|
||--2-2---2-2---------|-------------------|
||o-0-0---0-0-5-5-5-5-|-2-2---2-2-2-2-2-2-|
||------------3-3-3-3-|-0-0---0-0-0-0-0-0-|


                          D.S. al Coda
  E S S E E E E E E   S S E E E E E E E   3x
|-------------------|---------------------||
|-------------------|--------------------o||
|-------------------|---------------------||
|-----------2-0-----|---------------------||
|-0-0-0-0-0-----3-2-|-2-2-2-2-2-3-2-0----o||
|-------------------|-----------------3---||
|
| E E   E E E E E E   E E   E E E E E E   3x
|-------------------|---------------------||
|-------------------|--------------------o||
|-------------------|---------------------||
|-2-2---2-2---------|---------------------||
|-0-0---0-0-5-5-5-5-|-2-2---2-2-2-2-2-2--o||
|-----------3-3-3-3-|-0-0---0-0-0-0-0-0---||


   2nd Chorus
    &
    E S S E E E E E E   S S E E E E E E E
||--------------------|-------------------|
||o-------------------|-------------------|
||--------------------|-------------------|
||------------2-0-----|-------------------|
||o-0-0-0-0-0-----3-2-|-2-2-2-2-2-3-2-0---|
||--------------------|-----------------3-|
|
|   E E   E E E E E E   E E   E E E E E E
||--------------------|-------------------|
||o-------------------|-------------------|
||--------------------|-------------------|
||--2-2---2-2---------|-------------------|
||o-0-0---0-0-5-5-5-5-|-2-2---2-2-2-2-2-2-|
||------------3-3-3-3-|-0-0---0-0-0-0-0-0-|


  E S S E E E E E E   S S E E E E E E E
|-------------------|---------------------||
|-------------------|--------------------o||
|-------------------|---------------------||
|-----------2-0-----|---------------------||
|-0-0-0-0-0-----3-2-|-2-2-2-2-2-3-2-0----o||
|-------------------|-----------------3---||
|
| E E   E E E E E E   E E   E E E E E E
|-------------------|---------------------||
|-------------------|--------------------o||
|-------------------|---------------------||
|-2-2---2-2---------|---------------------||
|-0-0---0-0-5-5-5-5-|-2-2---2-2-2-2-2-2--o||
|-----------3-3-3-3-|-0-0---0-0-0-0-0-0---||


 Interlude
  Q=164
  Gtrs I, II
  >
  W          +W           +W           +W
|----------|------------|------------|--------||
|----------|------------|------------|--------||
|----------|------------|------------|--------||
|-2--------|-(2)--------|-(2)--------|-(2)----||
|-2--------|-(2)--------|-(2)--------|-(2)----||
|-0--------|-(0)--------|-(0)--------|-(0)----||


 Drum SOlo
  Wx12
|---------||
|---------||
|---------||
|---------||
|---------||
|---------||


 Guitar Solo
  Gtr I
  q  Q  Q   Q    q  E  E E E E E     E   +E  H     E    +E    E E E E E E E E
|--------------|-------------------|------------------------|-----------------|
|--------------|-------------------|------------------------|-----------------|
|--------------|-----------5-5-7b9-|-7b9r(7)-5----[7]b9r(7)-|-5---------5-5---|
|-7--7--7\-----|-7--7\---7---------|------------------------|---7-5-5-7-----7-|
|--------------|-------------------|------------------------|-----------------|
|--------------|-------------------|------------------------|-----------------|


  E E E E E E E E   E E E E E E E E   E E E E E E E E   E E E E E E E E
|-----------------|-----------------|-----------------|-----------------|
|-----------------|-----------------|-----------------|-----------------|
|-5---------5-5---|-------7-7-------|-7-7-5-5---------|-----------------|
|---7-5-5-7-----7-|-7-9-9-----9-7-7-|---------9-9-7-7-|-5-5-5-5---------|
|-----------------|-----------------|-----------------|-----------------|
|-----------------|-----------------|-----------------|---------0-0-0---|


   Q       +Q    +Q    +Q      +Q    +Q    +Q    +Q
|---------------------------|-------------------------|
|-15b17===(15)--(15)--(15)--|-(15)--(15)--(15)r=(15)--|
|-14b16===(14)--(14)--(14)--|-(14)--(14)--(14)r=(14)--|
|---------------------------|-------------------------|
|---------------------------|-------------------------|
|---------------------------|-------------------------|


         \2/   \2/   \2/   \2/   \2/   \2/   \2/   \7______
    E   +E    +E    +E    +E    +E    +E    +E     W
|------------------------------------------------|--------|
|------------------------------------------------|--------|
|-[14]-(14)--(14)--(14)--(14)--(14)--(14)--(14)--|--------|
|------------------------------------------------|--------|
|------------------------------------------------|--------|
|------------------------------------------------|-0------|


  /5____________________/0_________________|
                                                TP
  E   E E E E E E E   E E    E E  E  E  E  E    W
|-------------------|------------------------|-12--------|
|-------------------|------------------------|-----------|
|-------------------|------------------------|-----------|
|-------------------|------------------------|-----------|
|-------------------|------------------------|-----------|
|-0h==3p0h3p0h5p3h7h|=8p7h==10p8h12p10h13p12-|-----------|


   S  S  S  S  S  S  S  S  S  S  S  S  S  S  S  S
|-12-13-15-15-12-13-15-15-15-15-13-15-12-----------|
|----------------------------------------15-13-15--|
|--------------------------------------------------|
|--------------------------------------------------|
|--------------------------------------------------|
|--------------------------------------------------|


   E  E E E E E E E   E E E E E E E E
|-15-12-8-7-5-3-1-5-|-0-5-3-3-1-7-8-5-|
|-------------------|-----------------|
|-------------------|-----------------|
|-------------------|-----------------|
|-------------------|-----------------|
|-------------------|-----------------|


  Q=140
       T      T      T      T      T      T      T      T
  |--------------------------3--------------------------|
  S S  S S S  S S S  S S S  S S S  S S S  S S S  S S S  S
|-5h8h12p5h8h12p5h8h12p5h8h12p5h8h13p5h8h13p5h8h13p5h8h13-|
|---------------------------------------------------------|
|---------------------------------------------------------|
|---------------------------------------------------------|
|---------------------------------------------------------|
|---------------------------------------------------------|


       T      T      T      T      T      T      T      T
  |--------------------------3--------------------------|
  S S  S S S  S S S  S S S  S S S  S S S  S S S  S S S  S
|----------------------------------------------------------|
|-6h9h13p6h9h13p6h9h13p6h9h13p6h9h14p6h9h14p6h9h14p6h9h14--|
|----------------------------------------------------------|
|----------------------------------------------------------|
|----------------------------------------------------------|
|----------------------------------------------------------|


       T      T      T      T      T      T      T      T
  |--------------------------3--------------------------|
  S S  S S S  S S S  S S S  S S S  S S S  S S S  S S S  S
|---------------------------------------------------------|
|-5h8h12p5h8h12p5h8h12p5h8h12p5h8h13p5h8h13p5h8h13p5h8h13-|
|---------------------------------------------------------|
|---------------------------------------------------------|
|---------------------------------------------------------|
|---------------------------------------------------------|


  |----------------------3----------------------|
  S S S S S S S S S S S S S S S S S S S S S S S S
|-7p4p0h7p4p0h7p4p0h7p4p0h7p4p0h7p4p0h7p4p0h7p4p0-|
|-------------------------------------------------|
|-------------------------------------------------|
|-------------------------------------------------|
|-------------------------------------------------|
|-------------------------------------------------|


  |----------------------3----------------------|
  S S S S S S S S S S S S S S S S S S S S S S S S
|-8p5p0h8p5p0h8p5p0h8p5p0h8p5p0h8p5p0h8p5p0h8p5p0-|
|-------------------------------------------------|
|-------------------------------------------------|
|-------------------------------------------------|
|-------------------------------------------------|
|-------------------------------------------------|


  |----------------------3----------------------|
  S S S S S S S S S S S S S S S S S S S S S S S S
|-7p4p0h7p4p0h7p4p0h7p4p0h7p4p0h7p4p0h7p4p0h7p4p0-|
|-------------------------------------------------|
|-------------------------------------------------|
|-------------------------------------------------|
|-------------------------------------------------|
|-------------------------------------------------|


                 \7
  W             +W
|-5tr8--------|-(5tr8)----|
|-------------|-----------|
|-------------|-----------|
|-------------|-----------|
|-------------|-----------|
|-------------|-----------|


D.S.S. al Dbl. Coda
  W
|-------||
|-------||
|-------||
|-------||
|-------||
|-------||


 Outro Chorus
  Q=120
  &&
  Gtr I
  E E E E E E E E   E S S E E E E E E   S S E E E E E E E
|-----------------|-------------------|-------------------|
|-----------------|-------------------|-------------------|
|-----------------|-------------------|-------------------|
|-7-7-7-7s2-2-2-2-|-----------2-0-----|-------------------|
|-7-7-7-7s2-2-2-2-|-0-0-0-0-0-----3-2-|-2-2-2-2-2-3-2-0---|
|-5-5-5-5s0-0-0-0-|-------------------|-----------------3-|
|
| Gtr II
| E E E E E E E E   E E   E E E E E E   E E   E E E E E E
|-----------------|-------------------|-------------------|
|-----------------|-------------------|-------------------|
|-----------------|-------------------|-------------------|
|-7-7-7-7s2-2-2-2-|-2-2---2-2---------|-------------------|
|-7-7-7-7s2-2-2-2-|-0-0---0-0-5-5-5-5-|-2-2---2-2-2-2-2-2-|
|-5-5-5-5s0-0-0-0-|-----------3-3-3-3-|-0-0---0-0-0-0-0-0-|


  E S S E E E E E E   S S E E E E E E E
|-------------------|---------------------|
|-------------------|---------------------|
|-------------------|---------------------|
|-----------2-0-----|---------------------|
|-0-0-0-0-0-----3-2-|-2-2-2-2-2-3-2-0-----|
|-------------------|-----------------3---|
|
| E E   E E E E E E   E E   E E E E E E
|-------------------|---------------------|
|-------------------|---------------------|
|-------------------|---------------------|
|-2-2---2-2---------|---------------------|
|-0-0---0-0-5-5-5-5-|-2-2---2-2-2-2-2-2---|
|-----------3-3-3-3-|-0-0---0-0-0-0-0-0---|


    E S S E E E E E E   S S E E E E E E E
||--------------------|-------------------|
||o-------------------|-------------------|
||--------------------|-------------------|
||------------2-0-----|-------------------|
||o-0-0-0-0-0-----3-2-|-2-2-2-2-2-3-2-0---|
||--------------------|-----------------3-|
|
|   E E   E E E E E E   E E   E E E E E E
||--------------------|-------------------|
||o-------------------|-------------------|
||--------------------|-------------------|
||--2-2---2-2---------|-------------------|
||o-0-0---0-0-5-5-5-5-|-2-2---2-2-2-2-2-2-|
||------------3-3-3-3-|-0-0---0-0-0-0-0-0-|


  E S S E E E E E E   S S E E E E E E E   4x
|-------------------|---------------------||
|-------------------|--------------------o||
|-------------------|---------------------||
|-----------2-0-----|---------------------||
|-0-0-0-0-0-----3-2-|-2-2-2-2-2-3-2-0----o||
|-------------------|-----------------3---||
|
| E E   E E E E E E   E E   E E E E E E   4x
|-------------------|---------------------||
|-------------------|--------------------o||
|-------------------|---------------------||
|-2-2---2-2---------|---------------------||
|-0-0---0-0-5-5-5-5-|-2-2---2-2-2-2-2-2--o||
|-----------3-3-3-3-|-0-0---0-0-0-0-0-0---||


Duration Legend
---------------
W - whole; H - half; Q - quarter; E - 8th; S - 16th; T - 32nd; X - 64th; a - acciaccatura
+ - note tied to previous; . - note dotted; .. - note double dotted
Uncapitalized letters represent notes that are staccato (1/2 duration)
Irregular groupings are notated above the duration line
Duration letters will always appear directly above the note/fret number it represents the
duration for.  Duration letters with no fret number below them represent rests.  Multi-
bar rests are notated in the form Wxn, where n is the number of bars to rest for.  Low
melody durations appear below the staff

Tablature Legend
----------------
 h   - hammer-on
 p   - pull-off
 b   - bend
 pb  - pre-bend
 r   - bend release (if no number after the r, then release immediately)
 /\  - slide into or out of (from/to "nowhere")
 s   - legato slide
 S   - shift slide
  - natural harmonic
[n]  - artificial harmonic
n(n) - tapped harmonic
 ~   - vibrato
 tr  - trill
 T   - tap
 TP  - trem. picking
 PM  - palm muting
\n/  - tremolo bar dip; n = amount to dip
 \n  - tremolo bar down
 n/  - tremolo bar up
/n\  - tremolo bar inverted dip
 =   - hold bend; also acts as connecting device for hammers/pulls
 <>  - volume swell (louder/softer)
 x   - on rhythm slash represents muted slash
 o   - on rhythm slash represents single note slash

Misc Legend
-----------
 |  - bar
||  - double bar
||o - repeat start
o|| - repeat end
*|  - double bar (ending)
 :  - bar (freetime)
 $  - Segno
 &  - Coda
Tempo markers -  = BPM(8/16=s8/s16), where s8 = swing 8ths, s16 = swing 16ths


***************************************************************************************
* Generated using Power Tab Editor by Brad Larsen - http://powertab.guitarnetwork.org *
***************************************************************************************
comments
We did not receive enough feedback on this tab! Please rate:
print report bad tab
1 2 3 4 5
I want to post or [tab]
guest
You may want to rate the tab now too:
select rating
Please do not post tabs as comments. Select "correction" instead!