Oops, an error
Loading. Please wait.

Greg B - Song Tab

38 views 1 this week
no commentswrite comment
1 2 3 4 5
worth learning
x 3
add to favorites
launch autoscroll
font size
0
reset
how to read this tab
guitar tuner
Autoscroll
slow
fast
+/-
esc
set tempo
stop
Help us to improve Ultimate-Guitar.com Take our survey!
×
Author
Difficulty
intermediate
Ok..So i recently put in my solo...but I finished the whole song..so check it out..no 
yet...two guitars

Intro Guitar 1
-----------------------------------------------------------------------|
-----------------------------------------------------------------------|
---6B-4------4-6-4-6b-4--6B-4----4-6-4-6/13B-13-13-13-13-13--6B--------|
--------6b-6------------------6b---------------------------------------|
-----------------------------------------------------------------------|
-----------------------------------------------------------------------|
Guitar 2
----------0-----3----2-------------------------------------------------|
----------1-----0----3-------------------------------------------------|
--0-------0-----0----2-----------repeat--3x----------------------------|
--2-------2-----0----0-------------------------------------------------|
--2-------3-----2------------------------------------------------------|
--0-------------3------------------------------------------------------|
Guitar 1 (continued)
-----------------------------------------------------------------------|
---------------------------12--12---12B(hold)--------------------------|
---6B-4-----4-6/-13B-13-13---13--13------------------------------------|
--------6-6------------------------------------------------------------|
-----------------------------------------------------------------------|
-----------------------------------------------------------------------|
Verse Guitar 1
-----------------------------------------------------------------------|
-----------------------------------------------------------------------|
------rest------rest-----rest------6B-4-------rest------4h6p4---6p4----|
----------------------------------------6B------------6-------6--------|
-----------------------------------------------------------------------|
-----------------------------------------------------------------------|

Guitar 2-Em C G D (repeat 4x)

Guitar 1(cnt.)
-----------------------------------------------------------------------|
-------------------------------------------------5b--------------------|
----6B-4/---13B-13-13B-11-13B-13-13B-11----4-5-6----6------------------|
-----------------------------------------------------------------------|
-----------------------------------------------------------------------|
-----------------------------------------------------------------------|

Chorus Guitar 1
-------------------------------------------------------------11-14--17--|B
----------14-14-14-14-----------------------------------11-14-----------|
------13B------------13B------------------------13B--11-----------------|
-------------------------13-11------------------------------------------|
------------------------------13-11-------------------------------------|
------------------------------------14-11-------------------------------|

Guitar 2- Em D C G

Guitar 1 (cnt.)
---------------------------------------------------------------------------|
---------------------------------------------------------------------------|
----13B-11-----------------------------------------------------------------|
-----------13B-------------------------------------------------------------|
---------------------------------------------------------------------------|
---------------------------------------------------------------------------|
Fill 1 Between chorus and verse           Then
----------------------------------------- ------------------------------|
---------------------14-11--------------- ---14-11----------------------|
------------11-12-13---------repeat-3x--- ---------13-11----------------|
---11-12-13------------------------------ ------------------------------|
----------------------------------------- -----------------6-5-4--------|
----------------------------------------- ------------------------------|

Verse and Chorus the Same

Fill 2
---15p12---------------------------------------------------------------|
--------15p12----------------------------------------------------------|
-------------14p12----------12h14--------------------------------------|
-------------------12h13h14------12b-----------------------------------|
---------------------------------------4-5-6---------------------------|
-----------------------------------------------------------------------|

Verse and Chorus the Same

Fill 3
-----------------------------------------------------------------------|
---------------14----------15--------14--------15----------------------|
------11h12h13----11h12h13---11h11h13--11h12h13---13p12p11-13B---------|
-----------------------------------------------------------------------|
-----------------------------------------------------------------------|
-----------------------------------------------------------------------|

Then go straight into the solo

(Solo) Rhythym guitar Plays Em C G D in background
-----------------------------------------------------------------------|
-----------------------------------------------------------------------|
----13B-11-------11h13-11h13-11----11-13--13B--11-13-------------------|
-----------13-13----------------13------------------13-11--------------|
---------------------------------------------------------13-11---------|
---------------------------------------------------------------14-11---|

---------------------------------------------------------------- ---------|
------------------------------------19--19-------------------12- -----12--|
------------------13B-11---11-13/20---20--20/-13B-11----11-13--- 11h13----|rpt
-------------11b--------13---------------------------13--------- -------1-|0X
-------11-13---------------------------------------------------- ---------|
-11-14---------------------------------------------------------- ---------|

------------------------------------------------------------------------|
---12h15B--15B-15p12----------------------------------------------------|
---------------------14p12-----14-13-12-----14-13-12-------14-13-12-----|
---------------------------14B----------14B----------14b12----------14--|B
------------------------------------------------------------------------|
------------------------------------------------------------------------|

--------------------------------------------------------------------------|
--------------------------------15-15-15-15-15-15-------------15p13-15p13-|
---------------14B---------14B----------------------------14B-------------|
---12-12-13-14----12-13-14-----------------------12-13-14-----------------|
--------------------------------------------------------------------------|
--------------------------------------------------------------------------|

----------------------------------------17b-17b-17b--------------------|
--15B--15p13-15p13-15B-15p13-15p13-15B----------------repeat-----------|
--------------------------------------------------------2x-------------|
-----------------------------------------------------------------------|
-----------------------------------------------------------------------|
-----------------------------------------------------------------------|

--15-12------------------15-12------------------15-12-------------------|
--------15-12------------------15-12------------------15-12-------------|
--------------14-12------------------14-12------------------14B-12------|B(hold)
--------------------14b--------------------14b--------------------------|
------------------------------------------------------------------------|
------------------------------------------------------------------------|

------------------3----------------------------------------------------|
------------------3----------------------------------------------------|
------------------3----------------------------------------------------|
--------14B-------5----------------------------------------------------|
------------------5----------------------------------------------------|
------------------3----------------------------------------------------|


alrighty
thats my whole song
and on my last tab it didnt mention 4 months i've been playing taught myself
pretty sweet...hope you like it..

peace
Suggest correction
Give kudos to tab author, rate the tab!
1 2 3 4 5
comments
print report bad tab
guest
You may want to rate the tab now too:
select rating
Wanna post a correction for this tab? Suggest correction