Oops, an error
Loading. Please wait.

Inside Of Me tab

267 views 1 this week
3 commentsread comments
1 2 3 4 5
1 last vote to show rating
add to favorites
×
Save as Personal and add changes to this tab that will be seen only by you. Learn more ›
×
You can save this tab as Personal to edit and correct it or add notes. All changes will be seen only by you. Learn more »
launch autoscroll
font size
0
reset
how to read this tab
guitar tuner
edit
Autoscroll
slow
fast
+/-
esc
set tempo
stop
I WAS LOOKIN THROUGH SOME OLD MATERIAL THE OTHER DAY AND I FOUND THIS, THE VERY
FIRST SONG I EVA WROTE, AS YOUD EXPECT ITS SHITE BUT IS FUN AND PISS EASY SO I
WROTE IT UP, ITS CALLED "inside of me" AND I SHOWED IT TO THE BAND IM
WITH "drawback (frisky lemurs)"  AND THEY THOUGHT IT WAS SHITE, AND I NEW IT
WAS SHIT, NETHER THE LESS I SAID FUCK THEM AND USED IT NEWAY! ROCK ON

THIS IS MY SONG ITS A PIECE OF PISS BUT OH WELL IF YOU LIKE IT EMAIL ME
imonlymale@hotmail.com IF U DONT DEN DNT!!!. ENJOY.OH YEAH, JUST PLAY AT
THE PACE U WANT.

INTRO:

e|--------------------------------------------------------------|
B|--------------------------------------------------------------|
G|--------------------------------------------------------------|
D|---X-X-X-X-X-X-X-X-5-5---X-X-X-X-X-X-5-5---X-X-X-X-X-X-X-X-5-5|     X2
A|---X-X-X-X-X-X-X-X-5-5---X-X-X-X-X-X-5-5---X-X-X-X-X-X-X-X-5-5|
E|---X-X-X-X-X-X-X-X-3-3---X-X-X-X-X-X-3-3---X-X-X-X-X-X-X-X-3-3|
                   
                     sad.............mad.................angry               


I WAS JUST LAYIN ON MY ED PISSIN ROUND WITH MY GUITAR N GOT DIS INTRO,
SOUNDS PRETTY GOOD WITH HEAVY DISTORTION AND A BEEFY PICKUP!


INTERLUDE:

e|-------------------------------------------------------|
B|-------------------------------------------------------|
G|-------------------------------------------------------|
D|-----5--5--5-5-5/4--4--4-4-4/3--3--3--3-3-3-3--3--3----|     X2
A|-----5--5--5-5-5/4--4--4-4-4/3--3--3--3-3-3-3--3--3----|
E|-----3--3--3-3-3/2--2--2-2-2/1--1--1--1-1-1-1--1--1----|
                              (USE ALTERNATE PICKING HERE) 


vERSE:

e|--------------------------------------------------------|
B|--------------------------------------------------------|
G|--------------------------------------------------------|
D|-----5--5--5--5-4--4--4--4--3--3--3--3-3-3-3--3--3------|      X4
A|-----5--5--5--5-4--4--4--4--3--3--3--3-3-3-3--3--3------|
E|-----3--3--3--3-2--2--2--2--1--1--1--1-1-1-1--1--1------|
                              (USE IT HERE TOO!)


ITS BASICALLY ALL POWERCHORDS, ITS PROBABLY QUITE POSSIBLE TO PLAY THIS SONG HALF ASLEEP!!

BRIDGE:

e|--------------------------------------------------------|
B|--------------------------------------------------------|
G|----7--7--7-7/-9-9-9/-11-11-11/-14-14-14/-17-17-17------|
D|----X--X--X-X/-X-X-X/-X--X--X-/-X--X--X-/-X--X--X-------|
A|----5--5--5-5/-7-7-7/-9--9--9-/-12-12-12/-15-15-15------|
E|--------------------------------------------------------|


INTERLUDE:

e|-------------------------------------------------------|
B|-------------------------------------------------------|
G|-------------------------------------------------------|
D|-----5--5--5-5-5/4--4--4-4-4/3--3--3--3-3-3-3--3--3----|     X2
A|-----5--5--5-5-5/4--4--4-4-4/3--3--3--3-3-3-3--3--3----|
E|-----3--3--3-3-3/2--2--2-2-2/1--1--1--1-1-1-1--1--1----|
                                (ALTERNATE PICKING)

MID-INTRO:

e|--------------------------------------------------------|
B|--------------------------------------------------------|
G|--------------------------------------------------------|
D|--X-X-X-X-X-X-X-X-5X5X5/7--X-X-X-X-X-X-X-X-5X5X5/7------|
A|--X-X-X-X-X-X-X-X-5X5X5/7--X-X-X-X-X-X-X-X-5X5X5/7------|
E|--X-X-X-X-X-X-X-X-3X3X3/5--X-X-X-X-X-X-X-X-5X5X5/5------|

INTERLUDE:

e|-------------------------------------------------------|
B|-------------------------------------------------------|
G|-------------------------------------------------------|
D|-----5--5--5-5-5/4--4--4-4-4/3--3--3--3-3-3-3--3--3----|     X2
A|-----5--5--5-5-5/4--4--4-4-4/3--3--3--3-3-3-3--3--3----|
E|-----3--3--3-3-3/2--2--2-2-2/1--1--1--1-1-1-1--1--1----|
                                (USE ALTERNATE PICKING)

vERSE:

e|--------------------------------------------------------|
B|--------------------------------------------------------|
G|--------------------------------------------------------|
D|-----5--5--5--5-4--4--4--4--3--3--3--3-3-3-3--3--3------|      X3
A|-----5--5--5--5-4--4--4--4--3--3--3--3-3-3-3--3--3------|
E|-----3--3--3--3-2--2--2--2--1--1--1--1-1-1-1--1--1------|
                              (ALTERNATE PICKING)
e|--------------------------------------------------------|
B|--------------------------------------------------------|
G|--------------------------------------------------------|
D|-----5--5--5--5-4--4--4--4--3--3--3--3-3-3-3--3--3------|
A|-----5--5--5--5-4--4--4--4--3--3--3--3-3-3-3--3--3------|
E|-----3--3--3--3-2--2--2--2--1--1--1--1-1-1-1--1--1------|

|-----------------------------PM------------------------|



INTERLUDE:

e|-------------------------------------------------------|
B|-------------------------------------------------------|
G|-------------------------------------------------------|
D|-----5--5--5-5-5/4--4--4-4-4/3--3--3--3-3-3-3--3--3----|     X2
A|-----5--5--5-5-5/4--4--4-4-4/3--3--3--3-3-3-3--3--3----|
E|-----3--3--3-3-3/2--2--2-2-2/1--1--1--1-1-1-1--1--1----|
                                 (ALTERNATE PICKING) 

e|----------------------------------|
B|----------------------------------|
G|--------3----------------5--------|
D|--5-5-5-3-5-5-5-7--7-7-7-5-7-7-7-9|      X2
A|--5-5-5-1-5-5-5-7--7-7-7-3-7-7-7-9|
E|--3-3-3---3-3-3-5--5-5-5-0-5-5-5-7|


THIS SOLOS PRETTY DAMN SUCKEY AND CANT WRITE ONE 2 SAVE MY LIFE, I SUGGEST YOU USE YOUR OWN!


sOLO:


e|---16--17------------16--17------------16h17-----------16h17-17h18---|
B|----------16--17-15---------16--17-18--------16h17-15--------------19|
G|---------------------------------------------------------------------|
D|---------------------------------------------------------------------|
A|---------------------------------------------------------------------|
E|---------------------------------------------------------------------|


e|----------------------------15|
B|----19-19-18-18-17-17-16-16---|
G|------------------------------|
D|------------------------------|
A|------------------------------|
E|------------------------------|




IF U LIKE THIS SONG EMIAL ME AT imonlymale@hotmail.com

            
            
Suggest correction
Creating personal tab
Creating personal tab
You can edit any tab online and save it as your Personal.

You can edit, replace or remove any tab part or add personal notes – all changes will be seen only by you.

Personal tabs can be accessed anytime from any device, even offline.
Learn more »
Give kudos to tab author, rate the tab!
1 2 3 4 5
comments
print report bad tab
3 comments total.
0 reply
hope of life 10 Feb 13, 2004 07:00 PM

hi this is amazing stuff shows great intel;ligence in greatin good music using simple techniques gd stuff!! shame bout the solo bt it can be improved nice idea though

0 reply
Silent_Scream1 40 Oct 20, 2005 08:32 AM

jus plain sucked my balls

0 reply
hippieboy444 605 Aug 10, 2006 03:29 PM

Dude, change it to this:

|-----------------|
|-----------------|
|-----------------|
|-----------------|
|-5-5-4-4-3-3-2-2-|
|-3-3-2-2-1-1-0-0-|

guest
Wanna post a correction for this tab? Suggest correction