Oops, an error
Loading. Please wait.

Jeroen0011 - Tetris On Guitar Tab

1,805 views 3 this week
no commentswrite comment
1 2 3 4 5
please rate
add to favorites
launch autoscroll
font size
0
reset
how to read this tab
guitar tuner
Autoscroll
slow
fast
+/-
esc
set tempo
stop
Help us to improve Ultimate-Guitar.com Take our survey!
×
Author
-------------------------------------------------------------------------------
                             Jeroen0011 - Tetris On Guitar
-------------------------------------------------------------------------------

Here u see me playing this:

http://www.youtube.com/watch?v=JQH-LVjM6dw&feature=email&email=comment_received


Tuning: Standard



e|--12-------------------------12-------------------12-----------|
B|-----12-13-15-13-12-------13----15-13-12-12-13-15----13--------|
G|--------------------14-14-------------------------------14-14--|
D|---------------------------------------------------------------|
A|---------------------------------------------------------------|
E|---------------------------------------------------------------|


e|-----13-17-15-13----------------------------12------------|
B|--15-------------17-13-17-15-13-12-12-13-15----13---------|
G|--------------------------------------------------14-14---|
D|----------------------------------------------------------|
A|----------------------------------------------------------|
E|----------------------------------------------------------|


e|--12----------12-------------------12-------------------12-----------|
B|-----12-13-15----15-13-12-------13----15-13-12-12-13-15----13--------|
G|--------------------------14-14-------------------------------14-14--|
D|---------------------------------------------------------------------|
A|---------------------------------------------------------------------|
E|---------------------------------------------------------------------|


e|-----13-17-17-17-15-13----------------------------------12-----------|
B|--15-------------------17-13-17-17-17-15-13-12-12-13-15----13--------|
G|--------------------------------------------------------------14-14--|
D|---------------------------------------------------------------------|
A|---------------------------------------------------------------------|
E|---------------------------------------------------------------------|


e|----------------------------------------------------------------|
B|------------------------------------------------------10-10-~9--|
G|----------------------------------------------------9-----------|
D|--~14-~10-~12-~9-~10-~7-~6--+6/12-~14-~10-~12-~9-10-------------|
A|----------------------------------------------------------------|
E|----------------------------------------------------------------|


e|--12----------12-------------------12-------------------12-----------|
B|-----12-13-15----15-13-12-------13----15-13-12-12-13-15----13--------|
G|--------------------------14-14-------------------------------14-14--|
D|---------------------------------------------------------------------|
A|---------------------------------------------------------------------|
E|---------------------------------------------------------------------|


e|-----13-17-17-17-15-13----------------------------------12-----------|
B|--15-------------------17-13-17-17-17-15-13-12-12-13-15----13--------|
G|--------------------------------------------------------------14-14--|
D|---------------------------------------------------------------------|
A|---------------------------------------------------------------------|
E|---------------------------------------------------------------------|


e|--12----------12-------------------12-------------------12----------|
B|-----12-13-15----15-13-12-------13----15-13-12-12-13-15----13-------|
G|--------------------------14-14-------------------------------14-14-|
D|--------------------------------------------------------------------|
A|--------------------------------------------------------------------|
E|--------------------------------------------------------------------|


e|-----13-17-17-17-15-13----------------------------------12---------------|
B|--15-------------------17-13-17-17-17-15-13-12-12-13-15----~13-----------|
G|----------------------------------------------------------------~14--14\-|
D|-------------------------------------------------------------------------|
A|-------------------------------------------------------------------------|
E|-------------------------------------------------------------------------|



************************************
| /   slide up
| \   slide down
| h   hammer-on
| p   pull-off
| ~   vibrato
| +   harmonic
| x   Mute note
| b   Bend
| pb  Pre-bend
| br  Bend release
| pbr Pre-bend release
| brb Bend release bend
************************************
Suggest correction
What's this?
You can suggest a correction to this tab. Community and Mods will review your correction and vote to approve or reject it.
comments
We did not receive enough feedback on this tab! Please rate:
print report bad tab
1 2 3 4 5
guest
You may want to rate the tab now too:
select rating
Please do not post tabs as comments. Select "correction" instead!