Oops, an error
Loading. Please wait.

Kai Down - And Then I Changed My Mind tab

22 views 1 this week
no commentswrite comment
1 2 3 4 5
3 more votes to show rating
add to favorites
×
Save as Personal and add changes to this tab that will be seen only by you. Learn more ›
×
You can save this tab as Personal to edit and correct it or add notes. All changes will be seen only by you. Learn more »
launch autoscroll
font size
0
reset
how to read this tab
guitar tuner
edit
Autoscroll
slow
fast
+/-
esc
set tempo
stop
Author
Difficulty
[Intro]
e|----------------------------------------------t15--|----------------------------------------------t15----|
B|-8--t12/13/12p8----------8--t12/13/12p8------------|-7-t10/12/10p7-----------7-t10/12/10p7---------------|
G|--------------t12/14------------------t12/14-------|-------------t12/14-------------------t12/14---------|
D|-9-----------------t14p9-9-----------------t14-----|-7----------------t14p7--7------------------t14------|
A|-7-----------------------7-------------------------|-5-----------------------5---------------------------|
E|---------------------------------------------------|-----------------------------------------------------|

e|------------------------------------|-t10------------------------------------------t15------|
B|5-t7/8/7p5----------5-t7/8/7p5------|-----7-t10/12/10p7-----------7-t10/12p7----------------|
G|----------t7/9----------------t7/9--|------------------t12/14---------------t12/14----------|
D|5-------------t9p5--5------------t9-|-----7----------------t14p7--7--------------t14--------|
A|3-------------------3---------------|-----5-----------------------5-------------------------|
E|------------------------------------|-------------------------------------------------------|

e|----------------------------------t15-|-----------------------------------t15-------|
B|-8-t13p8t12p8-8-t13p8t12p8-8-t13p8----|-7-t12p7t10p7-7-t12p7t10p7-7-t12p7-----------|
G|--------------------------------------|---------------------------------------------|
D|-9------------9------------9----------|-7------------7------------7-----------------|
A|-7------------7------------7----------|-5------------5------------5-----------------|
E|--------------------------------------|---------------------------------------------|

e|----------------------------------|----------------------------------t15-----|
B|-5-t8p5t7p5-5-t8p5t7p8-5-t8p5t7p5-|-7-t12p7t10p7-7-t12p7t10p7-7-t12p7--------|
G|----------------------------------|------------------------------------------|
D|-5----------5----------5----------|-7------------7------------7--------------|
A|-3----------3----------3----------|-5------------5------------5--------------|
E|----------------------------------|-----------------------------------------|

[Verse]
e|-----|-------|----|----|---------------------------------|-------------------------------|
B|-7h8-|-12h13-|-12-|-17-|----8------7------13-----12-10---|------8-----5-----7-----1------|
G|-----|-------|----|----|------------------------------12-|-------------------------------|
D|-7h9-|-12h14-|-12-|-17-|---9-----7------14-----12--------|----9-----5-----7-----2--------|
A|-7---|-12----|-10-|-15-|-7-----5-----12-----10-----------|--7-----3-----5-----0----------|
E|-----|-------|----|----|---------------------------------|-------------------------------|

e|-----|-------|----|-----|----------------------------------|------------------------------|
B|-7h8-|-12h13-|-12-|-17--|-----8------7------13-----12-10---|-----8-----5-----7-----1------|
G|-----|-------|----|-----|-------------------------------12-|------------------------------|
D|-7h9-|-12h14-|-12-|-17--|---9-----7------14-----12---------|---9-----5-----7-----2--------|
A|-7---|-12----|-10-|-15--|-7-----5-----12-----10------------|-7-----3-----5-----0----------|
E|-----|-------|----|-----|----------------------------------|------------------------------|

[Pre-Chorus]
e|---------------------------------------------------------------------------|
B|---------------------------------------------------------------------------|
G|-9-----7-----5-----4---5-----9-----7-----5-----4---5-----------------------|
D|-9-----7-----5-----4---5-----9-----7-----5-----4---5-----------------------|
A|-7-----5-----3-----2---3-----7-----5-----3-----2---3-----------------------|
E|---------------------------------------------------------------------------|

[Chorus]
e|---------------------|-------------------------------|
B|---------------------|-------------------------------|
G|-9-9-9-9/12-12-12-12-|-12-12-12/7-7-7-7-7------------|
D|-9-9-9-9/12-12-12-12-|-12-12-12/7-7-7-7-7-7-7-7-7----|
A|-7-7-7-7/10-10-10-10-|-10-10-10/5-5-5-5-5-7-7-7-7----|
E|---------------------|--------------------5-5-5-5----|

[Verse]
e|-----|-------|----|----|-----------------------------------|------------------------------|
B|-7h8-|-12h13-|-12-|-17-|-----8------7------13-----12-10----|-----8-----5-----7-----1------|
G|-----|-------|----|----|-------------------------------12--|------------------------------|
D|-7h9-|-12h14-|-12-|-17-|----9-----7------14-----12---------|---9-----5-----7-----2--------|
A|-7---|-12----|-10-|-15-|--7-----5-----12-----10------------|-7-----3-----5-----0----------|
E|-----|-------|----|----|-----------------------------------|------------------------------|

e|-----|-------|----|-----|----------------------------------|------------------------------|
B|-7h8-|-12h13-|-12-|-17--|----8------7------13-----12-10----|-----8-----5-----7-----1------|
G|-----|-------|----|-----|------------------------------12--|------------------------------|
D|-7h9-|-12h14-|-12-|-17--|---9-----7------14-----12---------|---9-----5-----7-----2--------|
A|-7---|-12----|-10-|-15--|-7-----5-----12-----10------------|-7-----3-----5-----0----------|
E|-----|-------|----|-----|----------------------------------|------------------------------|

[Pre-Chorus]
e|---------------------------------------------------------------------------|
B|---------------------------------------------------------------------------|
G|-9-----7-----5-----4---5-----9-----7-----5-----4---5-----------------------|
D|-9-----7-----5-----4---5-----9-----7-----5-----4---5-----------------------|
A|-7-----5-----3-----2---3-----7-----5-----3-----2---3-----------------------|
E|---------------------------------------------------------------------------|

[Chorus]
e|---------------------|-------------------------------------------------------|
B|---------------------|-------------------------------------------------------|
G|-9-9-9-9/12-12-12-12-|-12-12-12/7-7-7-7-7------------------------------------|
D|-9-9-9-9/12-12-12-12-|-12-12-12/7-7-7-7-7-7-7-7-7----------------------------|
A|-7-7-7-7/10-10-10-10-|-10-10-10/5-5-5-5-5-7-7-7-7----------------------------|
E|---------------------|--------------------5-5-5-5----------------------------|

[Bridge]
e|-7-7-7-7-7-7-7--x-|-5-5-5-5-5-5-5-5-|-7-7-7-7-7-7-7--x-|-5-5-5-5-5-5--|-6-------------------------|
B|-8-8-8-8-8-8-8--x-|-5-5-5-5-5-5-5-5-|-8-8-8-8-8-8-8--x-|-5-5-5-5-5-5--|-6-------------------------|
G|-9-9-9-9-9-9-9--x-|-6-6-6-6-6-6-6-6-|-9-9-9-9-9-9-9--x-|-6-6-6-6-6-6--|-7-------------------------|
D|-9-9-9-9-9-9-9--x-|-7-7-7-7-7-7-7-7-|-9-9-9-9-9-9-9--x-|-7-7-7-7-7-7--|-8-------------------------|
A|-7-7-7-7-7-7-7--x-|-7-7-7-7-7-7-7-7-|-7-7-7-7-7-7-7--x-|-7-7-7-7-7-7--|-8-------------------------|
E|------------------|-5-5-5-5-5-5-5-5-|------------------|-5-5-5-5-5-5--|-6-------------------------|

[Chorus]
e|-------------------------|---------------------------------------------------|
B|-------------------------|---------------------------------------------------|
G|-10-10-10-10/13-13-13-13-|-13-13-13/8-8-8-8-8--------------------------------|
D|-10-10-10-10/13-13-13-13-|-13-13-13/8-8-8-8-8-8-8-8-8------------------------|
A|-8--8--8---8/11-11-11-11-|-11-11-11/6-6-6-6-6-8-8-8-8------------------------|
E|-------------------------|--------------------6-6-6-6------------------------|

e|-------------------------|---------------------------------------------------|
B|-------------------------|---------------------------------------------------|
G|-10-10-10-10/13-13-13-13-|-13-13-13/8-8-8-8-8--------------------------------|
D|-10-10-10-10/13-13-13-13-|-13-13-13/8-8-8-8-8-8-8-8-8------------------------|
A|-8--8--8---8/11-11-11-11-|-11-11-11/6-6-6-6-6-8-8-8-8------------------------|
E|-------------------------|--------------------6-6-6-6------------------------|

[Outro]
e|-------------------------------------------------t16-|------------------------------------------------t16--|
B|-9--t13/14/13p9-------------9--t13/14/13p9-----------|-8-t11/13/11p8--------------8-t11/13/11p8------------|
G|--------------t13/15---------------------t13/15------|---------------t13/15-------------------t13/15-------|
D|-10-----------------t15p10-10------------------t15---|-8------------------t15p8---8------------------t15---|
A|-8--------------------------8------------------------|-6--------------------------6------------------------|
E|-----------------------------------------------------|-----------------------------------------------------|

e|--------------------------------------t11-|---------------------------------------------t16---|
B|6-t8/9/8p6-----------6-t8/9/8p6-----------|-8-t11/13/11p8-----------8-t11/13p8----------------|
G|----------t8/10----------------t8/10------|------------t13/15-----------------t13/15----------|
D|6-------------t10p6--6--------------t10---|-8----------------t15p8--8----------------t15------|
A|4--------------------4--------------------|-6-----------------------6-------------------------|
E|------------------------------------------|---------------------------------------------------|

e|--------------------------------------t16-|-----------------------------------t16-------|
B|-9-t14p9t13p9---9-t14p9t13p9---9-t14p9----|-8-t13p8t11p8-8-t13p8t11p8-8-t13p8-----------|
G|------------------------------------------|---------------------------------------------|
D|-10------------10-------------10----------|-8------------8------------8-----------------|
A|-8--------------8--------------8----------|-6------------6------------6-----------------|
E|------------------------------------------|---------------------------------------------|

e|----------------------------------|----------------------------------t16-----|
B|-6-t9p6t8p4-6-t9p6t8p9-6-t9p6t8p6-|-8-t13p8t11p8-8-t13p8t11p8-8-t13p8--------|
G|----------------------------------|------------------------------------------|
D|-6----------6----------6----------|-8------------8------------8--------------|
A|-4----------4----------4----------|-6------------6------------6--------------|
E|----------------------------------|------------------------------------------|

e|-7-7-7-7-7-7-7-7-7-|------7-----------------------------------------------------------|
B|-8-8-8-8-8-8-8-8-8-|------9-----------------------------------------------------------|
G|-9-9-9-9-9-9-9-9-9-|------9-----------------------------------------------------------|
D|-9-9-9-9-9-9-9-9-9-|------8-----------------------------------------------------------|
A|-7-7-7-7-7-7-7-7-7-|------7-----------------------------------------------------------|
E|-------------------|------------------------------------------------------------------|



************************************

| t  Tapping
| p  Pull-off
| /  Slide up
| h  Hammer-on
| x  Dead note

************************************

            
            
Suggest correction
Creating personal tab
Creating personal tab
You can edit any tab online and save it as your Personal.

You can edit, replace or remove any tab part or add personal notes – all changes will be seen only by you.

Personal tabs can be accessed anytime from any device, even offline.
Learn more »
Give kudos to tab author, rate the tab!
1 2 3 4 5
comments
print report bad tab
guest
You may want to rate the tab now too:
select rating
Wanna post a correction for this tab? Suggest correction