Oops, an error
Loading. Please wait.

Nbn - All I Want ukulele

24 views 1 this week
no commentswrite comment
1 2 3 4 5
3 more votes to show rating
add to favorites
×
Save as Personal and add changes to this tab that will be seen only by you. Learn more ›
×
You can save this tab as Personal to edit and correct it or add notes. All changes will be seen only by you. Learn more »
launch autoscroll
font size
0
reset
transpose
0
reset
simplify chords
display chords
guitar tuner
edit
Autoscroll
slow
fast
+/-
esc
set tempo
stop
Strumming
There is no strumming pattern for this song yet. and get +5 IQ
-------------------------------------------------------------------------------
                            All I Want- N.B.N. (Never Be Normal)
-------------------------------------------------------------------------------
This is my own tab. You can put words to it or play it as you like but its mine
and copyrighted so you can't steal it.
Tabbed by:Me
Email:???@???.???

Tuning:E A D G B E
   Key
^= upstroke

Pick each chord out 
    C
e|--0--
B|--1--
G|--0--
D|--2--
A|--3--
E|--0--
    
    C7
e|--1--
B|--0--
G|--0--
D|--2--
A|--3--
E|--0--

    G
e|--3--
B|--0--
G|--0--
D|--0--
A|--2--
E|--3--

    ?
e|--3--
B|--1--
G|--0--
D|--0--
A|--2--
E|--3--
E|-----

  Play Slowly
  
      C      C^     C      C^      C      C^      
e|----0------0------0------0-------0------0--------------------------------
B|----1------1------1------1-------1------1--------------------------------
G|----0------0------0------0-------0------0--------------------------------
D|----2------2------2------2-------2------2--------------------------------
A|----3------3------3------3-------3------3--------------------------------
E|----0------0------0------0-------0------0--------------------------------

      C7     C7^    C7     C7^     C7     C7^
e|----1------1------1------1-------1------1--------------------------------
B|----0------0------0------0-------0------0--------------------------------
G|----0------0------0------0-------0------0--------------------------------
D|----2------2------2------2-------2------2--------------------------------
A|----3------3------3------3-------3------3--------------------------------
E|----0------0------0------0-------0------0--------------------------------


      G      G^     G      G^      G      G^
e|----3------3------3------3-------3------3--------------------------------
B|----0------0------0------0-------0------0--------------------------------
G|----0------0------0------0-------0------0--------------------------------
D|----0------0------0------0-------0------0--------------------------------
A|----2------2------2------2-------2------2--------------------------------
E|----3------3------3------3-------3------3--------------------------------

      G      G^     G      G^      G      G^
e|----3------3------3------3-------3------3--------------------------------
B|----0------0------0------0-------0------0--------------------------------
G|----0------0------0------0-------0------0--------------------------------
D|----0------0------0------0-------0------0--------------------------------
A|----2------2------2------2-------2------2--------------------------------
E|----3------3------3------3-------3------3--------------------------------

      C      C^     C      C^      C      C^      
e|----0------0------0------0-------0------0--------------------------------
B|----1------1------1------1-------1------1--------------------------------
G|----0------0------0------0-------0------0--------------------------------
D|----2------2------2------2-------2------2--------------------------------
A|----3------3------3------3-------3------3--------------------------------
E|----0------0------0------0-------0------0--------------------------------

      C7     C7^    C7     C7^     C7     C7^
e|----1------1------1------1-------1------1--------------------------------
B|----0------0------0------0-------0------0--------------------------------
G|----0------0------0------0-------0------0--------------------------------
D|----2------2------2------2-------2------2--------------------------------
A|----3------3------3------3-------3------3--------------------------------
E|----0------0------0------0-------0------0--------------------------------


      G      G^     G      G^      G      G^
e|----3------3------3------3-------3------3--------------------------------
B|----0------0------0------0-------0------0--------------------------------
G|----0------0------0------0-------0------0--------------------------------
D|----0------0------0------0-------0------0--------------------------------
A|----2------2------2------2-------2------2--------------------------------
E|----3------3------3------3-------3------3--------------------------------

      ?      ?^     ?      ?^      ?      ?^
e|----3------3------3------3-------3------3--------------------------------
B|----1------1------1------1-------1------1--------------------------------
G|----0------0------0------0-------0------0--------------------------------
D|----0------0------0------0-------0------0--------------------------------
A|----2------2------2------2-------2------2--------------------------------
E|----3------3------3------3-------3------3--------------------------------

Play Faster

      C      C^     C      C^      C      C^      
e|----0------0------0------0-------0------0--------------------------------
B|----1------1------1------1-------1------1--------------------------------
G|----0------0------0------0-------0------0--------------------------------
D|----2------2------2------2-------2------2--------------------------------
A|----3------3------3------3-------3------3--------------------------------
E|----0------0------0------0-------0------0--------------------------------

      C7     C7^    C7     C7^     C7     C7^
e|----1------1------1------1-------1------1--------------------------------
B|----0------0------0------0-------0------0--------------------------------
G|----0------0------0------0-------0------0--------------------------------
D|----2------2------2------2-------2------2--------------------------------
A|----3------3------3------3-------3------3--------------------------------
E|----0------0------0------0-------0------0--------------------------------


      G      G^     G      G^      G      G^
e|----3------3------3------3-------3------3--------------------------------
B|----0------0------0------0-------0------0--------------------------------
G|----0------0------0------0-------0------0--------------------------------
D|----0------0------0------0-------0------0--------------------------------
A|----2------2------2------2-------2------2--------------------------------
E|----3------3------3------3-------3------3--------------------------------

      G      G^     G      G^      G      G^
e|----3------3------3------3-------3------3--------------------------------
B|----0------0------0------0-------0------0--------------------------------
G|----0------0------0------0-------0------0--------------------------------
D|----0------0------0------0-------0------0--------------------------------
A|----2------2------2------2-------2------2--------------------------------
E|----3------3------3------3-------3------3--------------------------------

      C      C^     C      C^      C      C^      
e|----0------0------0------0-------0------0--------------------------------
B|----1------1------1------1-------1------1--------------------------------
G|----0------0------0------0-------0------0--------------------------------
D|----2------2------2------2-------2------2--------------------------------
A|----3------3------3------3-------3------3--------------------------------
E|----0------0------0------0-------0------0--------------------------------

      C7     C7^    C7     C7^     C7     C7^
e|----1------1------1------1-------1------1--------------------------------
B|----0------0------0------0-------0------0--------------------------------
G|----0------0------0------0-------0------0--------------------------------
D|----2------2------2------2-------2------2--------------------------------
A|----3------3------3------3-------3------3--------------------------------
E|----0------0------0------0-------0------0--------------------------------


      G      G^     G      G^      G      G^
e|----3------3------3------3-------3------3--------------------------------
B|----0------0------0------0-------0------0--------------------------------
G|----0------0------0------0-------0------0--------------------------------
D|----0------0------0------0-------0------0--------------------------------
A|----2------2------2------2-------2------2--------------------------------
E|----3------3------3------3-------3------3--------------------------------

      G      G^     G      G^      G      G^
e|----3------3------3------3-------3------3--------------------------------
B|----0------0------0------0-------0------0--------------------------------
G|----0------0------0------0-------0------0--------------------------------
D|----0------0------0------0-------0------0--------------------------------
A|----2------2------2------2-------2------2--------------------------------
E|----3------3------3------3-------3------3--------------------------------

      C      C^     C      C^      C      C^      
e|----0------0------0------0-------0------0--------------------------------
B|----1------1------1------1-------1------1--------------------------------
G|----0------0------0------0-------0------0--------------------------------
D|----2------2------2------2-------2------2--------------------------------
A|----3------3------3------3-------3------3--------------------------------
E|----0------0------0------0-------0------0--------------------------------

      C7     C7^    C7     C7^     C7     C7^
e|----1------1------1------1-------1------1--------------------------------
B|----0------0------0------0-------0------0--------------------------------
G|----0------0------0------0-------0------0--------------------------------
D|----2------2------2------2-------2------2--------------------------------
A|----3------3------3------3-------3------3--------------------------------
E|----0------0------0------0-------0------0--------------------------------


      G      G^     G      G^      G      G^
e|----3------3------3------3-------3------3--------------------------------
B|----0------0------0------0-------0------0--------------------------------
G|----0------0------0------0-------0------0--------------------------------
D|----0------0------0------0-------0------0--------------------------------
A|----2------2------2------2-------2------2--------------------------------
E|----3------3------3------3-------3------3--------------------------------

      G      G^     G      G^      G      G^
e|----3------3------3------3-------3------3--------------------------------
B|----0------0------0------0-------0------0--------------------------------
G|----0------0------0------0-------0------0--------------------------------
D|----0------0------0------0-------0------0--------------------------------
A|----2------2------2------2-------2------2--------------------------------
E|----3------3------3------3-------3------3--------------------------------

      C      C^     C      C^      C      C^      
e|----0------0------0------0-------0------0--------------------------------
B|----1------1------1------1-------1------1--------------------------------
G|----0------0------0------0-------0------0--------------------------------
D|----2------2------2------2-------2------2--------------------------------
A|----3------3------3------3-------3------3--------------------------------
E|----0------0------0------0-------0------0--------------------------------

      C7     C7^    C7     C7^     C7     C7^
e|----1------1------1------1-------1------1--------------------------------
B|----0------0------0------0-------0------0--------------------------------
G|----0------0------0------0-------0------0--------------------------------
D|----2------2------2------2-------2------2--------------------------------
A|----3------3------3------3-------3------3--------------------------------
E|----0------0------0------0-------0------0--------------------------------


      G      G^     G      G^      G      G^
e|----3------3------3------3-------3------3--------------------------------
B|----0------0------0------0-------0------0--------------------------------
G|----0------0------0------0-------0------0--------------------------------
D|----0------0------0------0-------0------0--------------------------------
A|----2------2------2------2-------2------2--------------------------------
E|----3------3------3------3-------3------3--------------------------------


      ?      ?^     ?      ?^      ?      ?^
e|----3------3------3------3-------3------3--------------------------------
B|----1------1------1------1-------1------1--------------------------------
G|----0------0------0------0-------0------0--------------------------------
D|----0------0------0------0-------0------0--------------------------------
A|----2------2------2------2-------2------2--------------------------------
E|----3------3------3------3-------3------3--------------------------------

Play fast
  
      C      C^     C      C^      C      C^      
e|----0------0------0------0-------0------0--------------------------------
B|----1------1------1------1-------1------1--------------------------------
G|----0------0------0------0-------0------0--------------------------------
D|----2------2------2------2-------2------2--------------------------------
A|----3------3------3------3-------3------3--------------------------------
E|----0------0------0------0-------0------0--------------------------------

      C      C^     C      C^      C      C^      
e|----0------0------0------0-------0------0--------------------------------
B|----1------1------1------1-------1------1--------------------------------
G|----0------0------0------0-------0------0--------------------------------
D|----2------2------2------2-------2------2--------------------------------
A|----3------3------3------3-------3------3--------------------------------
E|----0------0------0------0-------0------0--------------------------------

      C7     C7^    C7     C7^     C7     C7^
e|----1------1------1------1-------1------1--------------------------------
B|----0------0------0------0-------0------0--------------------------------
G|----0------0------0------0-------0------0--------------------------------
D|----2------2------2------2-------2------2--------------------------------
A|----3------3------3------3-------3------3--------------------------------
E|----0------0------0------0-------0------0--------------------------------

C7     C7^    C7     C7^     C7     C7^
e|----1------1------1------1-------1------1--------------------------------
B|----0------0------0------0-------0------0--------------------------------
G|----0------0------0------0-------0------0--------------------------------
D|----2------2------2------2-------2------2--------------------------------
A|----3------3------3------3-------3------3--------------------------------
E|----0------0------0------0-------0------0--------------------------------


      G      G^     G      G^      G      G^
e|----3------3------3------3-------3------3--------------------------------
B|----0------0------0------0-------0------0--------------------------------
G|----0------0------0------0-------0------0--------------------------------
D|----0------0------0------0-------0------0--------------------------------
A|----2------2------2------2-------2------2--------------------------------
E|----3------3------3------3-------3------3--------------------------------

      G      G^     G      G^      G      G^
e|----3------3------3------3-------3------3--------------------------------
B|----0------0------0------0-------0------0--------------------------------
G|----0------0------0------0-------0------0--------------------------------
D|----0------0------0------0-------0------0--------------------------------
A|----2------2------2------2-------2------2--------------------------------
E|----3------3------3------3-------3------3--------------------------------

      G      G^     G      G^      G      G^
e|----3------3------3------3-------3------3--------------------------------
B|----0------0------0------0-------0------0--------------------------------
G|----0------0------0------0-------0------0--------------------------------
D|----0------0------0------0-------0------0--------------------------------
A|----2------2------2------2-------2------2--------------------------------
E|----3------3------3------3-------3------3--------------------------------

      G      G^     G      G^      G      G^
e|----3------3------3------3-------3------3--------------------------------
B|----0------0------0------0-------0------0--------------------------------
G|----0------0------0------0-------0------0--------------------------------
D|----0------0------0------0-------0------0--------------------------------
A|----2------2------2------2-------2------2--------------------------------
E|----3------3------3------3-------3------3--------------------------------

      ?      ?^     ?      ?^      ?      ?^
e|----3------3------3------3-------3------3--------------------------------
B|----1------1------1------1-------1------1--------------------------------
G|----0------0------0------0-------0------0--------------------------------
D|----0------0------0------0-------0------0--------------------------------
A|----2------2------2------2-------2------2--------------------------------
E|----3------3------3------3-------3------3--------------------------------

      ?      ?^     ?      ?^      ?      ?^
e|----3------3------3------3-------3------3--------------------------------
B|----1------1------1------1-------1------1--------------------------------
G|----0------0------0------0-------0------0--------------------------------
D|----0------0------0------0-------0------0--------------------------------
A|----2------2------2------2-------2------2--------------------------------
E|----3------3------3------3-------3------3--------------------------------

      ?      ?^     ?      ?^      ?      ?^
e|----3------3------3------3-------3------3--------------------------------
B|----1------1------1------1-------1------1--------------------------------
G|----0------0------0------0-------0------0--------------------------------
D|----0------0------0------0-------0------0--------------------------------
A|----2------2------2------2-------2------2--------------------------------
E|----3------3------3------3-------3------3--------------------------------

      ?      ?^     ?      ?^      ?      ?^
e|----3------3------3------3-------3------3--------------------------------
B|----1------1------1------1-------1------1--------------------------------
G|----0------0------0------0-------0------0--------------------------------
D|----0------0------0------0-------0------0--------------------------------
A|----2------2------2------2-------2------2--------------------------------
E|----3------3------3------3-------3------3--------------------------------

      G      G^     G      G^      G      G^
e|----3------3------3------3-------3------3--------------------------------
B|----0------0------0------0-------0------0--------------------------------
G|----0------0------0------0-------0------0--------------------------------
D|----0------0------0------0-------0------0--------------------------------
A|----2------2------2------2-------2------2--------------------------------
E|----3------3------3------3-------3------3--------------------------------


      G      G^     G      G^      G      G^
e|----3------3------3------3-------3------3--------------------------------
B|----0------0------0------0-------0------0--------------------------------
G|----0------0------0------0-------0------0--------------------------------
D|----0------0------0------0-------0------0--------------------------------
A|----2------2------2------2-------2------2--------------------------------
E|----3------3------3------3-------3------3--------------------------------



      ?      G      ?      G       ?      G
e|----3------3------3------3-------3------3--------------------------------
B|----1------0------1------0-------1------0--------------------------------
G|----0------0------0------0-------0------0--------------------------------
D|----0------0------0------0-------0------0--------------------------------
A|----2------2------2------2-------2------2--------------------------------
E|----3------3------3------3-------3------3--------------------------------

            
            
Suggest correction
Creating personal tab
Creating personal tab
You can edit any tab online and save it as your Personal.

You can edit, replace or remove any tab part or add personal notes – all changes will be seen only by you.

Personal tabs can be accessed anytime from any device, even offline.
Learn more »
Give kudos to tab author, rate the tab!
1 2 3 4 5
comments
print report bad tab
guest
Wanna post a correction for this tab? Suggest correction